Violent Pornography, Sistem Of A Down (tablatura)

Autor: facu_soad | 34101 visualizaciones

intro:

D------------------------------------------------------|
A------------------------------------------------------|
F------------------------------------------------------|
C------------------------------------------------------|
G---9-10-10p12--13-12-10-13-12-10-9^---13^---15^-13----|
C-0----------------------------------------------------|  x2



D-----------------------------------------|
A-----------------------------------------|
F-----------------------------------------|
C-----------------------------------------| x2
G-5-6------ 6--7--------7--6-------6--5---|
C-3-4-------4--5--------5--4-------4--3---|
 


D-----------------------------------|
A-----------------------------------|
F-----------------------------------|
C-----------------------------------|
G-0-----7------7------7----5-6-8----|
C-0-0-0-5-0-00-5-0-00-5-00-3-4-7----|   x2
   


D----------------------------|
A----------------------------|
F----------------------------|
C----------------------------|
G-----7-----7-----7----5-6-8-|
C-0-0-5--00-5--00-5-00-3-4-7-|
 


D----------------------------|
A----------------------------|
F----------------------------|
C----------------------------|
G----7----7----7-------5-6-8-|
C-00-5-0005-0005--000--3-4-7-|
 


D-----------------------------------------|
A-----------------------------------------|
F-----------------------------------------|
C-----------------------------------------| x2
G-5-6------ 6--7--------7--6-------6--5---|
C-3-4-------4--5--------5--4-------4--3---|





D-----------------------------------|
A-----------------------------------|
F-----------------------------------|
C-----------------------------------|
G-0-----7------7------7----5-6-8----|
C-0-0-0-5-0-00-5-0-00-5-00-3-4-7----|   x2
   


D----------------------------|
A----------------------------|
F----------------------------|
C----------------------------|
G-----7-----7-----7----5-6-8-|
C-0-0-5--00-5--00-5-00-3-4-7-|
 



D-------------------------------|
A-------------------------------|
F-------------------------------|
C-------------------------------|
G----7----7----7-------7-6-4----|(3)
C-00-5-0005-0005--000--5-4-2----|(1)
 


D---------------------------------------|
A---------------------------------------|
F---------------------------------------|
C---------------------------------------|
G-(5)--(7)--(9)--(12)--(14)--(15)---(10-|
C-(3)--(5)--(7)--(10)--(12)--(13 )------|(8 )



-------------------------------------------------------------|
-------------------------------------------------------------|
-------------------------------------------------------------|
-------------------------------------------------------------|
-3------5------7------9------12--------14--------15--10------|
-1-1111-3-3333-5-5555-7-7777-10-101010-12-121212-13---8-8888-|


l-----------------------------------------|
-----------------------------------------|
-----------------------------------------| x2
-5-6------ 6--7--------7--6-------6--5---|
-3-4-------4--5--------5--4-------4--3---|
  




-----------------------------------|
-----------------------------------|
-----------------------------------|
-----------------------------------|
-0-----7------7------7----5-6-8----|
-0-0-0-5-0-00-5-0-00-5-00-3-4-7----|   x2
   



----------------------------|
----------------------------|
----------------------------|
----------------------------|
-----7-----7-----7----5-6-8-|
-0-0-5--00-5--00-5-00-3-4-7-|




-------------------------------|
-------------------------------|
-------------------------------|
-------------------------------|
----7----7----7-------7-6-4----|(3)
-00-5-0005-0005--000--5-4-2----|(1)
 



---------------------------------------|
---------------------------------------|
---------------------------------------|
---------------------------------------|
-(5)--(7)--(9)--(12)--(14)--(15)--(10--|
-(3)--(5)--(7)--(10)--(12)--(13)-------|(8 )
  




---------------------------------------------|
---------------------------------------------|
---------------------------------------------|
---------------------------------------------|
(3)--(5)--(7)--(9)--(12)--(14)--(15)--(10)---|
(1)--(3)--(5)--(7)--(10)--(12)--(13)---------|( 8)
 




-------------------------------------------------------------|
-------------------------------------------------------------|
-------------------------------------------------------------|
-------------------------------------------------------------|
-3------5------7------9------12--------14--------15--10------|
-1-1111-3-3333-5-5555-7-7777-10-101010-12-121212-13---8-8888-|




-------------------------------------------|
-------------------------------------------|
-------------------------------------------|
-------------------------------------------|
(3)--(5)--(7)--(9)--(12)--(14)--(15)--(10--|
(1)--(3)--(5)--(7)--(10)--(12)--(13)-------|( 8)




----------------------------------------------------|
----------------------------------------------------|
----------------------------------------------------|
----------------------------------------------------|
---9-10-10p12--13-12-10-13-12-10-9^---13^---15^-13--|
-0--------------------------------------------------|




-----------------------------------------------------|
-----------------------------------------------------|
-----------------------------------------------------|
-----------------------------------------------------|
---9-10-10p12--13-12-10-13-12-10-9^---13----10--(9)--|
-0---------------------------------------------------|

Comentarios del colaborador: aguante s.o.a.d

Calificar esta versión:
Aviso: Este fichero es trabajo propio de su transcriptor y representa su interpretación personal de la canción. El material contenido en esta página es para exclusivo uso privado, por lo que se prohibe su reproducción o retransmisión, así como su uso para fines comerciales.