Hypnotize (intro), Sistem Of A Down (tablatura)

Autor: pabloo65 | 25494 visualizaciones

Introducción (solamente)SOAD PDLS

6>-----------------------------------------------------------------
5>-----------------------------------------------------------------
4>-4-4-4-4-4-4-4-4-4-4-4-4-4-4-4-4-4-4-4-4-4-4-4-4-4-4-4-4-4-4-4-4-
3>4-4-6-6-6-6-6-6-7-7-6-6-4-4-3-3-4-4-6-6-6-6-6-6-7-7-6-6-4-4-3-3-
2>-----------------------------------------------------------------
1>-----------------------------------------------------------------

.................................................................

6>-----------------------------------------------------------------
5>-----------------------------------------------------------------
4>-4-4-4-4-4-4-4-4-4-4-4-4-4-4-4-4-4-4-4-4-4-4-4-4-4-4-4-4-4-4-4-4-
3>-----------------------------------------------------------------
2>7-7-6-6---7-7---------------------------------------------7-7---
1>-------4-4---6-6-4-4-8-8-7-7-10-10-8-8-7-7-4-4-8-8-7-7-4-4---5-5-

................................................................

6>-----------------------------------------------------------------
5>-----------------------------------------------------------------
4>-4-4-4-4-4-4-4-4-4-4-4-4-4-4-4-4-4-4-4-4-4-4-4-4-4-4-4-4-4-4-4-4-
3>-----------------------------------------------------------------
2>---7-7-6-6-------------------------------------------------------
1>4-4--------------------------------------------------------------
Calificar esta versión:
Aviso: Este fichero es trabajo propio de su transcriptor y representa su interpretación personal de la canción. El material contenido en esta página es para exclusivo uso privado, por lo que se prohibe su reproducción o retransmisión, así como su uso para fines comerciales.