Hypnotize, Sistem Of A Down (tablatura)

Autor: lilimetal | 19067 visualizaciones

hola , el solo es la primera parte del intro repitan deacuerdo a cancion
       intro
                                       
|-------------------------------|-------------------------------|
|-1-1--3-3-3-3-3--4-4--3-3-1-1--|-8-8--7-7--10-10--8-8----------|
|--0-0--0-0-0-0-0--0-0--0-0-0-0-|--0-0--0-0---0--0--0-0---------|
|-------------------------------|-------------------------------|
|-------------------------------|-------------------------------|
|-------------------------------|-------------------------------|


|----------------------------|----------------------------------|
|-12-12--10-10--13-13-12-12--|-15--15-13-13-12-12--10-10--------|
|---0--0---0--0---0--0--0--0-|---0---0--0--0--0--0---0--0-------|
|----------------------------|----------------------------------|
|----------------------------|----------------------------------|
|----------------------------|----------------------------------|


|---------------------------------------------------------------|
|-13-13--12-12--10-10--8-8--11-11-10-10--8-8--7-7---------------|
|---0--0---0--0---0--0--0-0---0--0--0--0--0-0--0-0--------------|
|---------------------------------------------------------------|
|---------------------------------------------------------------|
|---------------------------------------------------------------|


    chorus
|---------------------------------------------------------------|
|-15-15-13-13-12-12-10-10-13-13-12-12-10-10-8-8-11-11-10-10-8-7-|
|---------------------------------------------------------------|
|---------------------------------------------------------------|
|---------------------------------------------------------------|
|---------------------------------------------------------------|

   
    final
|---------------------------------------------------------------|
|-1-1--3-3-3-3-3-4-4--3-3--1/3-1-0------------------------------|
|--0-0--0-0-0-0-0-0-0--0-0-------0------------------------------|
|---------------------------------------------------------------|
|---------------------------------------------------------------|
|---------------------------------------------------------------|
Calificar esta versión:
Aviso: Este fichero es trabajo propio de su transcriptor y representa su interpretación personal de la canción. El material contenido en esta página es para exclusivo uso privado, por lo que se prohibe su reproducción o retransmisión, así como su uso para fines comerciales.