Goodbye Blue Sky, Sistem Of A Down (tablatura)

Autor: chicometal | 41083 visualizaciones

Intro
|--------------------------------------------------------------------------------|
|--------------------------------------------------------------------------------|
|-----------0-----------------------0--------------------------------------------|
|-----4--------4------4------4--------4------------------------------------------|
|--5-----5--------5------5------5--------5---0-----------------------------------|
|--------------------------------------------------------------------------------|

|--------------------------------------------------------------------------------|
|--------------------------------------------------------------------------------|
|-----------0---------------0-------------0-------------0------------------------|
|------4--------4-------4------4------4------4------4------4---------------------|
|--2-----------------2-------------2--------------2------------0-----------------|
|--------------------------------------------------------------------------------|

|--------------------------------------------------------------------------------|
|--------------------------------------------------------------------------------|
|-------------0------------------------0-----------------------------------------|
|------4---------4------4------4---------4---------------------------------------|
|--5------5---------5------5------5---------5---0--------------------------------|
|--------------------------------------------------------------------------------|

|--------------------------------------------------------------------------------|
|--------------------------------------------------------------------------------|
|--------------------------0-----------0-----------------------------------------|
|-----4-----4--4-----4--4-----4-----4-----4--------------------------------------|
|--2-----2--------2--------------2-----------0-----------------------------------|
|--------------------------------------------------------------------------------|

|--------------------------------------------------------------------------------|
|--------------------------------------------------------------------------------|
|-------------0------------------------0-----------------------------------------|
|------4---------4------4------4---------4---------------------------------------|
|--5------5---------5------5------5---------5---0--------------------------------|
|--------------------------------------------------------------------------------|

|--------------------------------------------------------------------------------|
|--------------------------------------------------------------------------------|
|----------0-------------0--------------0-------------0--------------------------|
|------4------4------4------4-------4------4------4-------4----------------------|
|--2--------------2-------------2--------------2-------------0-------------------|
|--------------------------------------------------------------------------------|

|--------------------------------------------------------------------------------|
|--------------------------------------------------------------------------------|
|----------0-------------0--------------0-------------0--------------------------|
|------4------4------4------4------4------4------4------4------------------------|
|--5--------------5-------------5--------------5-------------0-------------------|
|--------------------------------------------------------------------------------|

|--------------------------------------------------------------------------------|
|--------------------------------------------------------------------------------|
|----------0-------------0--------------0-------------0--------------------------|
|------4------4------4------4------4------4------4------4------------------------|
|--2--------------2-------------2--------------2------------0--------------------|
|--------------------------------------------------------------------------------|

|--------------------------------------------------------------------------------|
|--------------------------------------------------------------------------------|
|-----------5--5-----------4--4-----------5--5-----------4--4--4--5--------------|
|-----2--------------0--------------2--------------0-----------------------------|
|--0-----0--------2-----2--------0-----0--------2-----2--------------0-----------|
|--------------------------------------------------------------------------------|

|--------------------------------------------------------------------------------|
|--------------------------------------------------------------------------------|
|-----5--------5--------4--------4--------4--5--------5--------5-----------------|
|--------0--------0--------0--------0-----------0--------0--------0--------------|
|--5--------5--------5--------5--------5-----------5--------5--------5-----------|
|--------------------------------------------------------------------------------|

|--------------------------------------------------------------------------------|
|--------------------------------------------------------------------------------|
|--4--------4--------4--5--------5--------4--------4--------4--5-----------------|
|-----0--------0-----------0--------0--------0--------0--------------------------|
|--------5--------5-----------5--------5--------5--------5-----------------------|
|--------------------------------------------------------------------------------|

|--------------------------------------------------------------------------------|
|--------------------------------------------------------------------------------|
|-----0--0--------0-----------0----------0-----------0-----------0---------------|
|--------------4-----4-----4----------4-----4-----4-----4-----4------------------|
|--2--------2-----------2----------2-----------2-----------2---------------------|
|--------------------------------------------------------------------------------|

|--------------------------------------------------------------------------------|
|--------------------------------------------------------------------------------|
|--------0-----------0----------0-----------0----------0-----------0-----------0-|
|-----4-----4-----4----------4-----4-----4----------4-----4-----4-----4-----4----|
|--2-----------2----------5-----------5----------5-----------5-----------5-------|
|--------------------------------------------------------------------------------|

|--------------------------------------------------------------------------------|
|--------------------------------------------------------------------------------|
|--------0-----------0----------0----------0----------0-----------0-----------0--|
|-----4-----4-----4----------4-----4-----4---------4-----4-----4-----4-----4-----|
|--5-----------5----------2-----------2---------2-----------2-----------2--------|
|--------------------------------------------------------------------------------|

|--------------------------------------------------------------------------------|
|--------------------------------------------------------------------------------|
|--------0-----------0----------0-----------0----------0-----------0-----------0-|
|-----4-----4-----4----------4-----4-----4----------4-----4-----4-----4-----4----|
|--2-----------2----------5-----------5----------5-----------5-----------5-------|
|--------------------------------------------------------------------------------|

|-----------------------|
|-----------------------|
|--------0-----------0--|
|-----4-----4-----4-----|
|--5-----------5--------|
|-----------------------|
Calificar esta versión:
Aviso: Este fichero es trabajo propio de su transcriptor y representa su interpretación personal de la canción. El material contenido en esta página es para exclusivo uso privado, por lo que se prohibe su reproducción o retransmisión, así como su uso para fines comerciales.