Byob, Sistem Of A Down (tablatura)

Autor: Anónimo | 19199 visualizaciones

Riff 1
E|-----------------------------------------------------------------|
B|-----------------------------------------------------------------|
G|-----------------------------------------------------------------|
D|-7-0-0-0-0-0-0-7-0-0-8-0-0-7-0-7-0-0-0-0-7-0-0-8-0-0-7-0-7-0-0-0-|
A|-----------------------------------------------------------------|
D|-----------------------------------------------------------------|

Riff 2
E|--------------------------------|
B|--------------------------------|
G|--------------------------------|
D|-7-0-0-8-0-0-7-0-7-0-0-0-0------|  repetir 3 vezes
A|--------------------------------|
D|--------------------------------|

Riff 3
E|---------------------------------------------|
B|---------------------------------------------|
G|-----------------------------9-10-12---------|
D|-----------------------------9-10-12---------|
A|-----------------------------7-8--10---------|
D|-0-0-7-0-0-8-0-0-7-0-0-8-0-0-----------------|
                                                 2 vezes
E|---------------------------------------------|
B|---------------------------------------------|
G|-----------------------------12-10-9---------|
D|-----------------------------12-10-9---------|   
A|-----------------------------10-8--7---------|
D|-0-0-7-0-0-8-0-0-7-0-0-8-0-0-----------------|



Riff 4
E|-------------------------------------|
B|-------------------------------------|
G|-----------------------------9-------|
D|-----------------------------9-------|
A|-----------------------------7-------|
D|-0-0-7-0-0-8-0-0-7-0-0-8-0-0---------|

E|-------------------------------------|
B|-------------------------------------|
G|-------------------------------------|
D|------------------------------5--3-2-|  
A|------------------------------5--3-2-|
D|-0-0-7-0-0-8-0-0-7-0-0-8-0-0--5--3-2-|

Riff 5
E|------------------------------------------------|
B|------------------------------------------------|
G|-----------------------------12-10--------------|
D|-----------------------------12-10--------------|
A|-----------------------------10-8---------------|
D|-0-0-7-0-0-8-0-0-7-0-0-8-0-0--------------------|

Riff 6
E|------------------------------------------------|
B|------------------------------------------------|
G|----------------------------5-5-----------------|
D|----------------------------5-5--------3-2-0----|
A|-3-2-0-0--0-2-3-5-3-2-0-3-0-3-3--0-3-0----------|
D|-3-2-0-0--0-2-3-5-3-2-0-3-0---------------------|

E|------------------------------------------------|
B|------------------------------------------------|
G|------------------------------------------------|
D|------------------------------------------------|
A|-3-2-0-0--0-5-7-8-7-5-3-5-3-2--3~---------------| 
D|-3-2-0-0--0-5-7-8-7-5-3-5-3-2-------------------|

Riff 7
E|------------------------------------------------|
B|------------------------------------------------|
G|-7-7-7-7-5-5-5-5-7-7----------------------------|
D|-7-7-7-7-5-5-5-5-7-7----------------------------|
A|-5-5-5-5-3-3-3-3-5-5--0-5-7-8-7-5-3-5-3-2--3~---|
D|----------------------0-5-7-8-7-5-3-5-3-2-------|

Riff 8
E|---------------------------------|
B|---------------------------------|
G|---------------------------------|
D|-7-7-7-7-7-7-7-7-10-7-7-9-7-7-5--|
A|-7-7-7-7-7-7-7-7-10-7-7-9-7-7-5--|
E|-7-7-7-7-7-7-7-7-10-7-7-9-7-7-5--|

Riff 9I
E|----------------------------------------------------------------|
B|----------------------------------------------------------------|
G|----------------------------------------------------------------|
D|----------------------------------------------------------------|
A|----------------------------------------------------------------|
D|-5-5-5-5-5-5-5-5-1-1-1-1-1-1-1-1-0-0-0-0-0-0-0-0--7-0-0-8-0-0-7-|

Riff 9II
E|--------------------------------|
B|--------------------------------|
G|--------------------------------|
D|--------------------------------|
A|--------------------------------|
D|-0-0-0-0-0-0-0-0--7-0-0-8-0-0-7-|

1/2 Riff
E|----------------------------------------------------------------------------|
B|----------------------------------------------------------------------------|
G|----------------------------------------------------------------------------|
D|----------------------------------------------------------------------------|
A|----------------------------------------------------------------------------|
D|-12-12-12-12-11-11-11-11-10-10-10-10-9-9-9-9-8-8-8-8-7-7-7-7-6-6-6-6-5-5-5-5|

Riff 10
E|------------------------------------------------|
B|------------------------------------------------|
G|------------------------------------------------|
D|------------------------------------------------|
A|------------------------------------------------|
D|-0-0-0-0-0-0-0-0-0-0-0-0-0-0-0-0--7-0-0-8-0-0-7-|

Riff 1, Riff 2, Riff 3

Why do they always send the poor?
Riff 4
Barbarisms by Barbaras
With pointed heels
Victorious victories kneel
For brand new spankin` deals
Riff 4
Marching forward hypocritic and
Hypnotic computers
You depend on our protection
Riff 5  Riff 6
Yet you feed us lies from the tablecloth
Riff 7
Everybody`s going to the party have a real good time
Dancing in the desert blowing up the sunshine

Riff 4
Kneeling roses disappearing into
Moses` dry mouth
Breaking into Fort Knox stealing
Our intentions

Riff 4
Hangers sitting dripped in oil
Crying freedom
Handed to obsoletion
Riff 5 Riff 6
Still you feed us lies from the tablecloth

Riff 7
Everybody`s going to the party have a real good time
Dancing in the desert blowing up the sunshine

Everybody`s going to the party have a real good time
Dancing in the desert blowing up the sunshine

Riff 8
Blast off
It`s party time
And we don`t live in a fascist nation

Blast off
It`s party time
And where the fuck are you?

Riff 9I
Where the fuck are you?
Where the fuck are you?
Why don`t presidents fight the war?
Why do they always send the poor?
Why don`t presidents fight the war?
Why do they always send the poor?

Riff 9II
Why do they always send the poor?
Why do they always send the poor?
Why do they always send the poor?

Riff 4
Kneeling roses disappearing into
Moses` dry mouth
Breaking into Fort Knox stealing
Our intentions

Riff 4
Hangers sitting dripped in oil
Crying freedom
Handed to obsoletion,
Riff 5 Riff 6
Still you feed us lies from the tablecloth

Riff 7
Everybody`s going to the party have a real good time
Dancing in the desert blowing up the sunshine

Everybody`s going to the party have a real good time
Dancing in the desert blowing up the sun...

Riff 9I
Where the fuck are you?
Where the fuck are you?
Why don`t presidents fight the war?
Why do they always send the poor?
Why don`t presidents fight the war?

Riff 9II
Why do they always send the poor?
Why do they always send the poor?
Why do they always send the poor?

1/2 Riff

Riff 10
Why... do... they always send the poor?
Why... do... they always send the poor?
Why... do... they always send the poor?
They always send the poor?
They always send the poor?

Calificar esta versión:
Aviso: Este fichero es trabajo propio de su transcriptor y representa su interpretación personal de la canción. El material contenido en esta página es para exclusivo uso privado, por lo que se prohibe su reproducción o retransmisión, así como su uso para fines comerciales.