Jefe, Sinergia (tablatura)

Autor: efestus2.0 | 30093 visualizaciones

       -jefe-





(parte desde el principio tocando esto)
e||-------------------------------------------||
B||-------------------------------------------||
G||----4-4-------4-4-------4---5-5-5-4-4-7----||
D||--5-4-4-5---5-4-4-5---5-4-5-5-5-5-4-4-7-5--||
A||--5-2-2-5---5-2-2-5---5-2-5-3-3-3-2-2-5-5--||
E||--3-----3---3-----3---3---3-------------3--||
Jefe, ¿a usted le gusta la platita?
A mi también,
Jefe, ¿está conforme con su sueldo?
Yo pa ná…
Jefe, ¿a usted le gusta trabajar?
A mi si, con mejores condiciones
Jefe, ¿hay que quedarse hasta más tarde?
Shaaaa, ¡otra vez!

Auuuuuuuu… au… au… au
Auuuuuuuu… au… au… au
Auuuuuuuu… au… au… au
Auuuuuuuu… au… au… au
(en la siguente parte se toca esto)
e||-7-7-7-7-7-7-8-8---||
B||-7-7-7-7-7-7-8-8---||
G||-8-8-8-8-8-8-9-9---||
D||-9-9-9-9-9-9-1010--||
A||-------------------||
E||-------------------||

Jefe, usted tiene éxito
Todo lo acierta, a todo le achunta
A usted le va bien
Por más que le pongo talento, le pongo empeño
No consigo ascender como usted
Jefe, usted tiene éxito
Todo lo acierta, a todo le achunta
A usted le va bien
Yo le tengo mucho respeto,
Le tengo estima,
Pero a veces lo mandaría a la %$#/*#!

(ahora se toca esto)
e||----------------------------||
B||----------------------------||
G||----------------------------||
D||-2-2-3-3-4-4-5-5-6-6--5-65-||
A||-2-2-3-3-4-4-5-5-6-6--5-63-||
E||-0-0-1-1-2-2-3-3-4-4--3-43-||

Usted es jefe y la lleva
Usted sabe cómo y cuánto
Usted toma decisiones
Y define lo que yo debo hacer
Yo le ordeno su agenda
Le cubro la espalda
Le soluciono todo
Pero usted no me da bola


e||---------------------------------||
B||---------------------------------||
G||---------------------------------||
D||-2-2-3-3-2-2-3-3-2-2-3-3-2-2-2-2-||
A||-2-2-3-3-2-2-3-3-2-2-3-3-2-2-2-2-||
E||-0-0-1-1-0-0-1-1-0-0-1-1-0-0-0-0-||
                        e||---------||
       (aca la segunda  B||---------||
        guiatrra hace   G||---------||
           esto)        D||---3---2-||
                        A||--3---2--||
                        E||-1---0---||

Sube la luz, la bencina
El agua, la micro
Sube el gas, el metro
Y usted no me da incentivo
Sube el arriendo
Me la paso trabajando        e||----------||
Usted no me toma en cuenta   B||----------||
No me sube el sueldo ------> G||----------||(al final se toca esto)
                             D||--3----2--||
                             A||-3-3--2-2-||
                             E||1----0----||


(se vuelve a tocar esta parte)
e||-------------------------------------------||
B||-------------------------------------------||
G||----4-4-------4-4-------4---5-5-5-4-4-7----||
D||--5-4-4-5---5-4-4-5---5-4-5-5-5-5-4-4-7-5--||
A||--5-2-2-5---5-2-2-5---5-2-5-3-3-3-2-2-5-5--||
E||--3-----3---3-----3---3---3-------------3--||

Jefe, ¿leyó el Código da Vinci?
Yo también!!
Jefe, ¿le gusta el rock chileno?
¿Ah no?… ¡hay super buenas bandas!
Jefe, ¿a usted le gusta su señora?
(Hum, a mi también)
Jefe, ¿tiene secretaria nueva?
Pillín, pillín

Auuuuuu… auuuuu… auuuu… auuuuu
Auuuuuu… auuuuu… auuuu… auuuuu
Auuuuuu… auuuuu… auuuu… auuuuu
Auuuuuu… auuuuu… auuuu… auuuuu

(otra vez...)
e||---------------------------------||
B||---------------------------------||
G||---------------------------------||
D||-2-2-3-3-2-2-3-3-2-2-3-3-2-2-2-2-||
A||-2-2-3-3-2-2-3-3-2-2-3-3-2-2-2-2-||
E||-0-0-1-1-0-0-1-1-0-0-1-1-0-0-0-0-||
                        e||---------||
       (aca la segunda  B||---------||
        guiatrra hace   G||---------||
           esto)        D||---3---2-||
                        A||--3---2--||
                        E||-1---0---||

Sube la luz, la bencina
El agua, la micro
Sube el gas, el metro
Y usted no me da incentivo
Sube el arriendo
Me la paso trabajando        E||----------||
Usted no me toma en cuenta   E||----------||
No me sube el sueldo-------->E||----------||
                             E||--3----2--||
                             E||-3-3--2-2-||
                             E||1----0----||

(para terminar)
e||-------------------------------------------||
B||-------------------------------------------||
G||----4-4-------4-4-------4---5-5-5-4-4-7----||
D||--5-4-4-5---5-4-4-5---5-4-5-5-5-5-4-4-7-5--||
A||--5-2-2-5---5-2-2-5---5-2-5-3-3-3-2-2-5-5--||
E||--3-----3---3-----3---3---3-------------3--||
Jefe
¡Escuché unos rumores!
¡Reducción de personal!…
¡Jefe, lo echaron de la pega!
¡A mi también!
Calificar esta versión:
Aviso: Este fichero es trabajo propio de su transcriptor y representa su interpretación personal de la canción. El material contenido en esta página es para exclusivo uso privado, por lo que se prohibe su reproducción o retransmisión, así como su uso para fines comerciales.