Vete, Sin Censura (tablatura)

Autor: millostequiero | 32050 visualizaciones



e-----4-----4------2-----2------4-----4-----2-----4-
B---5-----5------4-----4------5-----5-----4-----4---
G-4-----4------4-----4------6-----6-----2-----4-----
D---------------------------------------------------
A---------------------------------------------------
E---------------------------------------------------

luego este mismo intro pero otra guitarra haces esto 

    E5       
E|--X--|
B|--X--|
G|--10-|
D|--X--|
A|--7--|
E|--X--|


   A5         B5
E|--X--|    E|--X--|
B|--X--|    B|--X--|
G|--6--|    G|--9--|
D|--X--|    D|--X--|
A|--4--|    A|--6--|
E|--X--|    E|--X--|

 esto es para el intro del segundo y tercer verso
 los acordes basicos de esta cancion son:
 
 E5  B5  C#5  A5  B5

 escuchen bien la cancion para que puedan notar los cambios





Calificar esta versión:
Aviso: Este fichero es trabajo propio de su transcriptor y representa su interpretación personal de la canción. El material contenido en esta página es para exclusivo uso privado, por lo que se prohibe su reproducción o retransmisión, así como su uso para fines comerciales.