La Razón Eres Tu, Sin Bandera (tablatura)

Autor: Anónimo | 43477 visualizaciones

Bueno este tema esta muy bueno, lo saque con algunas tablaturas
Para que lo puedan tocar como en el cd, lean las notas al pie
Para tener unos consejos…
Intro:
         F         Em      C         D
e-10--8--7--8--10-----5/7--------7---------------------------
B------------------8-------8--10----8/10---------------------
G------------------------------------------------------------
D------------------------------------------------------------
A------------------------------------------------------------
E------------------------------------------------------------

         F         Em    C         D
e-10--8--7--8--10--8-5/7-------7-----------------------------
B------------------------8--10---8/10------------------------
G------------------------------------------------------------
D------------------------------------------------------------
A------------------------------------------------------------
E------------------------------------------------------------

Verso 1

G                             C9           D
Todo se siente tan diferente cuando estas aquí
  G                                       C9         D
Estas en al gente, estas en mi mente que bello es vivir
     G                                       C9     D
And now that I found her, I don´t wanna ever be alone
      Gm7                         D
Tú me amas, y este mundo se ve mejor


Arpegio del estribillo debes repetirlo en las tres primeras
Oraciones de los estribillos:

   G                [ G       Am      Bm     C9]       D
e-------------------------------------------------3---------2--|
B------0---0-3/5/3--------0-------1------1----------------3---3|
G-----0--0--------------------------------------0-------2------| X 3
D----0-------------------------2-------0------2-------0--------|
A--2-------------------2-----0-------2------3------------------|
E-3------------------3-----------------------------------------|
Amor………            la       ra       zon    eeres     tu

Y esto va en la ultima oracion:

  Am      Am7     [C     Bm    Am    G            F              D   C]
e---------7---7-------------------------------------------------------
B-----5---5---5--------1-----1-----1------0-3/5/3-------1/3/1----7-/-4
G----5----5---5------------------2--------------------2------2---6-/-5
D---7-----5---5------2-----0-----------0------------------------------
A--7------7---7----3-----2-----0--------------------3-----------------
E-5-------5---5----------------------3------------1-------------------
…mi amor           Tuuuuuuuuuuuuuuuuuuuuuuuuuuuuuuuuuuu

Estribillo

       G   [G  Am Bm C9]   D
      Amor, la razon eres tu
                G  [G Am    Bm C9]    D
      Puedes llenar todo el lugar de luz
                 G  [G  Am Bm  C9]    D
      Me haces volar hasta tu cielo azul
               Am   Am7             [C Bm Am G F  D C ]
      Mira MI amor,    LA razón eres tuuuuuuuuuuu



Verso 2

G                         C9     D
Voy despistado, enamorado sin temor
   G                            C9      D
   No tengo prisa, no hay otro lugar mejor
   G                                        C9      D
   Trying to find the words but I don´t no what to say
         Gm7                           C9    D
   She loves me wouldn´t have it any other way



  Estribillo

            G    [G   Am   Bm  C9 ]    D
      Ohh, love, look what you make me do
                  G      [ G     Am  Bm   C9 ]  D
      All of the things I swore that I´d never do
              G [G      Am   Bm   C9 ]    D
   I didn´t know where this will lead me too
    Am      Em
   Look at now…



Puente
                    C         D             Bm
   Me entrego a tu voz, sin miedo en el corazón
        Em             Am   D              G        Am Bm C
   Atrapado por la emoción, y la pasión de darte mi de…vo…ción
       Am            Bm    Em                 Am
   Abrazándome a tu piel, todo va a estar muy bien
             Bm               C         D
   Whit my whole heart, let forever begin and now


Ultimo verso

  G#  Bbm Cm  C#   D#               G#
   La  ra…zón eres tu, all of the things
           Bbm  Cm  C#     D#
   I swore that I´d never do
             G#  G# Bbm   Cm    C#   D#
   Me haces volar has…ta  tu cielo azul
             Bbm  D#                       Cm   Fm
   Look at me now,   look what you make me dooooo
           Bbm  D#               C#  Cm  Bbm G#  F#
   Mira MI amor,   LA razón eres tuuuuuuuuuuuuu

   La razón eres tuuu…

Final:
        F#     Ebm     C#        D#
e-11--9--8--11-----6/8--------8------------------------------
B---------------9-------9--11---9/11-------------------------
G------------------------------------------------------------
D------------------------------------------------------------
A------------------------------------------------------------
E------------------------------------------------------------
         F#       Ebm   C#        D#       G#
e-11--9--8--9--11--9-6/8--------8----------------------------
B------------------------9--11----9/11--9--9~----------------
G------------------------------------------------------------
D------------------------------------------------------------
A------------------------------------------------------------
E------------------------------------------------------------

Algunos acordes:

      C9     Gm7    Am7
E      3      3      7
B      1      3      5
G      0      3      5
D      2      3      5
A      3      5      7
E      x      3      5


Creo que a los demas acordes los conocen, los # van con cejilla,
escribi una oracion del estribillo para que se guien un
Poco, pero si lo ven muy complicado cantarlo con el arpegio
Rasgueen solo [G Am C9 y D]x3 , y en la ultima oracion solo
Usen [Am C G F D C] e ignoren las otras… pero igual con
un poco de practica sale, no sean vagos y practiquen jajaja!!
Bueno, como siempre, cualquier cosa que necesiten
 migspider007@hotmail.com, le dedico esta cancion a mi nueva
amiga Gime!!! Sos un sol!!! Tambien a Sol!!! Que tambien sos
un SOL!!!! Y a mis novias Nery y ro, las Quiero mucho!!!
Micky
Aviso: Este fichero es trabajo propio de su transcriptor y representa su interpretación personal de la canción. El material contenido en esta página es para exclusivo uso privado, por lo que se prohibe su reproducción o retransmisión, así como su uso para fines comerciales.

Comentarios en Facebook: