I Miss You, Simple Plan (tablatura)

Autor: flavio_rey_del_rock | 37963 visualizaciones

Intro: D / G

E|----|-----------------------------
B|----|-----------------------------
G|----|-----------------------------
D|----|---0--0---------0---0--5h---- 8X
A|----|-4--4---------4---4----------
E|--3-|--------0-3------------------


To see you when I wake up is a gift
I don't think could be real
To know that you feel the same as I do
Is a three fold utopian dream

refrão

Bm            G      D Em       C         D
 You do something to me that I can't explain   
Bm            G         D Em       C
 So would I be out off line if I said
      D  
I miss you

Verso: D / G

E|----|-----------------------------
B|----|-----------------------------
G|----|-----------------------------
D|----|---0--0---------0---0--5h----  12x
A|----|-4--4---------4---4----------
E|--3-|--------0-3------------------

I see your picture
I smell your skin on the empty pillow next to mine
You have only been gone 10 days
But already I'm wasting away

Refrão
Bm          G         D 
 I know ill see you again
Em        C       D 
 Weither far or soon
Bm          G         D 
 But I need you to know
Em        C
 That I care
          D         
And I Miss You

E|----|-----------------------------
B|----|-----------------------------
G|----|-----------------------------
D|----|---0--0---------0---0--5h----  4x
A|----|-4--4---------4---4----------
E|--3-|--------0-3------------------

Comentarios del colaborador: segunda cancion

Calificar esta versión:
Aviso: Este fichero es trabajo propio de su transcriptor y representa su interpretación personal de la canción. El material contenido en esta página es para exclusivo uso privado, por lo que se prohibe su reproducción o retransmisión, así como su uso para fines comerciales.