Happy Together, Simple Plan (tablatura)

Autor: J3sUs94 | 36789 visualizaciones

INTRO- 
e|---------------------------| 
B|---------------------------| 
G|-----7-----7---------------| 
D|-777/7-777/7-7777-7-6-4-2--| 
A|-777/5-777/5-7777-7-6-4-2--| 
E|-555---555---5555-5-4-2-0--| 
 
VERSO
e|---------------------------------| 
B|---------------------------------| 
G|-11-11--11-11-99-99-77-77-66-66--|   X2 
D|-11-11--11-11-99-99-77-77-66-66--| 
A|-9--9---9--9--77-77-55-55-44-44--| 
E|---------------------------------| 
 
CORO
e|-------------------------------------|      |---------------------------------------| 
B|-------------------------------------|      |---------------------------------------| 
G|-------------------------------------|      |--11-11-11-11---9-9-9-9---14-14-14-14--|  X2 
D|-4-4-4-4--2-2-2-2--4-4-4-4--7-7-7-7--|      |--11-11-11-11---9-9-9-9---14-14-14-14--| 
A|-4-4-4-4--2-2-2-2--4-4-4-4--7-7-7-7--|  OU  |---9--9--9--9---7-7-7-7---12-12-12-12--| 
E|-2-2-2-2--0-0-0-0--2-2-2-2--5-5-5-5--|      |---------------------------------------| 
 
VERSO
e|---------------------------------| 
B|---------------------------------| 
G|-11-11--11-11-99-99-77-77-66-66--|   X2 
D|-11-11--11-11-99-99-77-77-66-66--|   
A|-9--9---9--9--77-77-55-55-44-44--| 
E|---------------------------------| 
 
CORO 
e|-------------------------------------|      |--------------------------------------| 
B|-------------------------------------|      |--------------------------------------| 
G|-------------------------------------|      |-11-11-11-11---9-9-9-9---14-14-14-14--| 
D|-4-4-4-4--2-2-2-2--4-4-4-4--7-7-7-7--|      |-11-11-11-11---9-9-9-9---14-14-14-14--| X4 
A|-4-4-4-4--2-2-2-2--4-4-4-4--7-7-7-7--|  O   |--9--9--9--9---7-7-7-7---12-12-12-12--| 
E|-2-2-2-2--0-0-0-0--2-2-2-2--5-5-5-5--|      |--------------------------------------| 
 
SOLO  
e|----------------------------3--5--7--9--12--11--12--9--7--5--9--7--5--9--7--5--9--7--5--9--7--5--| 
B|-2/3/5/7/9/10/12---------------------------------------------------------------------------------| 
G|-------------------------------------------------------------------------------------------------| 
D|-------------------------------------------------------------------------------------------------| 
A|-------------------------------------------------------------------------------------------------| 
E|-------------------------------------------------------------------------------------------------| 
 
FINAL
e|------| 
B|------| 
G|-11---| 
D|-11---| 
A|--9---| 
E|------| 


Calificar esta versión:
Aviso: Este fichero es trabajo propio de su transcriptor y representa su interpretación personal de la canción. El material contenido en esta página es para exclusivo uso privado, por lo que se prohibe su reproducción o retransmisión, así como su uso para fines comerciales.