La Que Me Quiera La Quiero, Silvestre Dangond (tablatura)

Autor: Anónimo | 36278 visualizaciones

Este es solamente el intro de la canción

Esta es la parte de la guitarra
e--------------------------------------
b----6-6---5-5--3-3-1------------------
g---3----3----3----0-------------------
d--------------------------------------
a-----------------------------------------
e-----------------------------------------


aquí empieza el acordeón

e----------------------------------------------
b----------------------------------------------
g---8-10-10-8-10---10-10--8-10-10-8-10---10-10-
d----------------------------------------------
a----------------------------------------------
e----------------------------------------------

------------------------------------------------
------------------------------------------------
--6-8-8-6-8---8-8--6-8-8-6-8---8-8--------------
------------------------------------------------
------------------------------------------------
------------------------------------------------

------------------------------------------------
------------------------------------------------
--5-6-6-5-6---6-6--5-6-6-5-6-3-5-5-6-5-3--------
------------------------------------------------
------------------------------------------------
------------------------------------------------

-----------------------------------------------------
-----------------------------------------------------
--8----6-5-3---8----6-5-1---8----6-5-3---8----6-5—1--
-----------------------------------------------------
-----------------------------------------------------
-----------------------------------------------------

Escuchen vallenato que eso si es música...
Cultura colombiana
Apóyenla


Juliandres
Calificar esta versión:
Aviso: Este fichero es trabajo propio de su transcriptor y representa su interpretación personal de la canción. El material contenido en esta página es para exclusivo uso privado, por lo que se prohibe su reproducción o retransmisión, así como su uso para fines comerciales.