Giving Up (electrico), Silverstein (tablatura)

Autor: ale_TTA_GB | 16168 visualizaciones



Giving up... buen tema ojala les guste.. me costo sacarlo pero al final igual es facil.. :)

INTRO
"I used to make the light shine for you..."
GUITAR 1: x6
e|-------------------------------------------------------------------------|
B|-------------------------------------------------------------------------|
G|------------9--------9--------------------9--------9---------------------|
D|-----10--------10-------10---------10--------10-------10-----------------|
A|--8------8---------8------------8------8---------8-----------------------|
D|-------------------------------------------------------------------------|

e|-------------------------------------------------------------------------|
B|-------------------------------------------------------------------------|
G|-----------12--------12--------------------12--------12------------------|
D|-----10--------10--------10--------10----------10--------10--------------|
A|--0------0---------0------------0------0-----------0---------------------|
D|-------------------------------------------------------------------------|

GUITAR 2: x2 (
e|----12~--10~--7/8~------------12~--15~--10/12~---------------------------|
B|-------------------------------------------------------------------------|
G|-------------------------------------------------------------------------|
D|-------------------------------------------------------------------------|
A|-------------------------------------------------------------------------|
D|-------------------------------------------------------------------------|

============================================================================

CHORUS
"Giving up on me..."
GUITAR 1: x2
e|-------------------------------------------------------------------------|
B|-------------------------------------------------------------------------|
G|-------------------------------------------------------------------------|
D|10-10-10-10-10-10--10-10-10-10-10-10-------------------------------------|
A|-8--8--8--8--8--8---8--8--8--8--8--8--7--7--7--7--7--7--7--7--7--7--7--7-|
D|--------------------------------------7--7--7--7--7--7--7--7--7--7--7--7-|

GUITAR 2: x4
e|-7-0-0-15-0-0-13-0-0-12-0-0-10-0-0-|
B|-----------------------------------|
G|-----------------------------------|
D|-----------------------------------|
A|-----------------------------------|
D|-----------------------------------| 

============================================================================

POST CHORUS x2
"I've laid myself to sleep tonight..."
GUITAR 1:
e|-------------------------------------------------------------------------|
B|-------------------------------------------------------------------------|
G|-------------------------------------------------------------------------|
D|--3-3-3-3-3-3-3-3--5-5-5-5-5-5-5--7--7--7--7--7--7--7--7--7--7--7--7-----|
A|--3-3-3-3-3-3-3-3--5-5-5-5-5-5-5--7--7--7--7--7--7--7--7--7--7--7--7-----|
D|--3-3-3-3-3-3-3-3--5-5-5-5-5-5-5--7--7--7--7--7--7--7--7--7--7--7--7-----|

GUITAR 2:
e|---------------------------------(-7-0-0-15-0-0-13-0-0-12-0-0-10-0-0---)-|
B|---------------------------------(-----------------------------------x2)-|
G|-------------------------------------------------------------------------|
D|--3-3-3-3-3-3-3-3--5-5-5-5-5-5-5-----------------------------------------|
A|--3-3-3-3-3-3-3-3--5-5-5-5-5-5-5-----------------------------------------|
D|--3-3-3-3-3-3-3-3--5-5-5-5-5-5-5-----------------------------------------|

===========================================================================

VERSE x3
"And now you throw it all away..."
BOTH GUITARS:
e|-------------------------------------------------------------------------|
B|-------------------------------------------------------------------------|
G|-------12-12-------------------------------------------------------------|
D|-10-10-10-10--10-10-10-10-10-10-10-10------------------------------------|
A|--8--8--8--8--10-10-10-10-10-10-10-10--10-10-----------------------------|
D|--------------10-10-10-10-10-10-10-10---9--9-----------------------------|

VERSE x1:
e|-------------------------------------------------------------------------|
B|-------------------------------------------------------------------------|
G|-------12-12-------------------------------------------------------------|
D|-10-10-10-10--10-10-10-10-5-5-5-5-5-5-5-5--------------------------------|
A|--8--8--8--8--10-10-10-10-5-5-5-5-5-5-5-5--------------------------------|
D|--------------10-10-10-10-5-5-5-5-5-5-5-5--------------------------------|

============================================================================

CHORUS
"Giving up on me..."
GUITAR 1: x2
e|-------------------------------------------------------------------------|
B|-------------------------------------------------------------------------|
G|-------------------------------------------------------------------------|
D|10-10-10-10-10-10--10-10-10-10-10-10-------------------------------------|
A|-8--8--8--8--8--8---8--8--8--8--8--8--7--7--7--7--7--7--7--7--7--7--7--7-|
D|--------------------------------------7--7--7--7--7--7--7--7--7--7--7--7-|

GUITAR 2: x4
e|-7-0-0-15-0-0-13-0-0-12-0-0-10-0-0-|
B|-----------------------------------|
G|-----------------------------------|
D|-----------------------------------|
A|-----------------------------------|
D|-----------------------------------| 

============================================================================

POST CHORUS-2 x2
"I'VE LAID MYSELF TO SLEEP TONIGHT..."
GUITAR 1: x2
e|-------------------------------------------------------------------------|
B|-------------------------------------------------------------------------|
G|-------------------------------------------------------------------------|
D|--3-3-3-3~---5-5-5-5~---777777777777-------------------------------------|
A|--3-3-3-3~---5-5-5-5~---777777777777-------------------------------------|
D|--3-3-3-3~---5-5-5-5~---777777777777-------------------------------------|
pm  . . .      . . . 

GUITAR 2: x1 
e|-------------------------------------------------------------------------|
B|-------------------------------------------------------------------------|
G|-----------------------17-17-17-17-16-16-16-16-14-14-14-14-16-16-16-16---|
D|--3-3-3-3~---5-5-5-5~---x--x--x--x--x--x--x--x--x--x--x--x--x--x--x--x---|
A|--3-3-3-3~---5-5-5-5~--15-15-15-15-14-14-14-14-12-12-12-12-14-14-14-14---|
D|--3-3-3-3~---5-5-5-5~----------------------------------------------------|
pm  . . .      . . . 

===========================================================================

VERSE x3
"And now you throw it all away..."
BOTH GUITARS
e|-------------------------------------------------------------------------|
B|-------------------------------------------------------------------------|
G|-------12-12-------------------------------------------------------------|
D|-10-10-10-10--10-10-10-10-10-10-10-10------------------------------------|
A|--8--8--8--8--10-10-10-10-10-10-10-10--10-10-----------------------------|
D|--------------10-10-10-10-10-10-10-10---9--9-----------------------------|

VERSE x1
e|-------------------------------------------------------------------------|
B|-------------------------------------------------------------------------|
G|-------12-12-------------------------------------------------------------|
D|-10-10-10-10--10-10-10-10-5~---------------------------------------------|
A|--8--8--8--8--10-10-10-10-5~---------------------------------------------|
D|--------------10-10-10-10-5~---------------------------------------------|

===========================================================================

INTRO
"I used to make the light shine for you..."
GUITAR 1: x6
e|-------------------------------------------------------------------------|
B|-------------------------------------------------------------------------|
G|------------9--------9--------------------9--------9---------------------|
D|-----10--------10-------10---------10--------10-------10-----------------|
A|--8------8---------8------------8------8---------8-----------------------|
D|-------------------------------------------------------------------------|

e|-------------------------------------------------------------------------|
B|-------------------------------------------------------------------------|
G|-----------12--------12--------------------12--------12------------------|
D|-----10--------10--------10--------10----------10--------10--------------|
A|--0------0---------0------------0------0-----------0---------------------|
D|-------------------------------------------------------------------------|

GUITAR 2: x2 

E|----12~--10~--7/8~------------12~--15~--10/12~---------------------------|
B|-------------------------------------------------------------------------|
G|-------------------------------------------------------------------------|
D|-------------------------------------------------------------------------|
A|-------------------------------------------------------------------------|
D|-------------------------------------------------------------------------|

============================================================================

BRIDGE
BOTH GUITARS: x2
e|-------------------------------------------------------------------------|
B|-------------------------------------------------------------------------|
G|-------------------------------------------------------------------------|
D|-101010101010101010101010-777777-555555----------------------------------|
A|--8-8-8-8-8-8-8-8-8-8-8-8-777777-555555----------------------------------|
E|--------------------------777777-555555----------------------------------|
						                     
GUITAR: 1 x2					                     
e|-------------------------------------------------------------------------|
B|-------------------------------------------------------------------------|
G|-------------------------------------------------------------------------|
D|-101010101010101010101010-777777-555555----------------------------------|
A|--8-8-8-8-8-8-8-8-8-8-8-8-777777-555555----------------------------------|
E|--------------------------777777-555555----------------------------------|
						                     
GUITAR: 2 x2					                     
e|---3-3h5p3-----3-3h5p3------3-3h5p3-----3-3h5p3--------------------------|
B|-------------------------------------------------------------------------|
G|-------------------------------------------------------------------------|
D|-------------------------------------------------------------------------|
A|-------------------------------------------------------------------------|
E|-------------------------------------------------------------------------|

============================================================================

VERSE x7
"And now you throw it all away..."
BOTH GUITARS
e|-------------------------------------------------------------------------|
B|-------------------------------------------------------------------------|
G|-------12-12-------------------------------------------------------------|
D|-10-10-10-10--10-10-10-10-10-10-10-10------------------------------------|
A|--8--8--8--8--10-10-10-10-10-10-10-10--10-10-----------------------------|
D|--------------10-10-10-10-10-10-10-10---9--9-----------------------------|

VERSE x1
BOTH GUITARS
e|-------------------------------------------------------------------------|
B|-------------------------------------------------------------------------|
G|-------12-12-------------------------------------------------------------|
D|-10-10-10-10--10-10-10-10--10~--10~--7~----------------------------------|
A|--8--8--8--8--10-10-10-10---8~--10~--7~----------------------------------|
D|--------------10-10-10-10-------10~--7~----------------------------------|

============================================================================

| /  slide up
| \  slide down
| h  hammer-on
| p  pull-off
| ~  vibrato
| +  harmonic
| x  Mute note

===========================================================================





Calificar esta versión:
Aviso: Este fichero es trabajo propio de su transcriptor y representa su interpretación personal de la canción. El material contenido en esta página es para exclusivo uso privado, por lo que se prohibe su reproducción o retransmisión, así como su uso para fines comerciales.