Give Up, Silverstein (tablatura)

Autor: 17punk | 46285 visualizaciones



silverstein


   
    give up



   1e-----0-------0-----------------
   2B--------------------8-----8----
   3G----0-0-----0-0----5-5---5-5---
   4D--10---10-10---10-7---7-7---7--  X2
   5A-8-------8-------0-----0-------
   6E-------------------------------

    verso:

   1e-----0-------0-----------------                -0
   2B--------------------8-----8----    y termina   -8
   3G----0-0-----0-0----5-5---5-5---      kon:      -5
   4D--10---10-10---10-7---7-7---7--  x4            -7
   5A-8-------8-------0-----0-------                -0
   6E-------------------------------                -x


   coro:

   1e-------------     ------------------
   2B-------------     ------------------
   3G-10----------     ------------------
   4D-10----10----  x2 --3----5----7-----
   5A-8-----10----     --3----5----7-----
   6E-------8-----     --1----3----5-----


 lo demas se lleva asi y la segunda guitarra del coro es asi:



  1e-15-0-13-0-12-0-10-8--
  2B----------------------
  3G----------------------
  4D----------------------
  5A----------------------
  6E----------------------


y eso kuidense kualkier duda ahi esta mi msn kail_6_2@hotmail.com





Calificar esta versión:
Aviso: Este fichero es trabajo propio de su transcriptor y representa su interpretación personal de la canción. El material contenido en esta página es para exclusivo uso privado, por lo que se prohibe su reproducción o retransmisión, así como su uso para fines comerciales.