Discovering The Waterfront, Silverstein (tablatura)

Autor: Em0PuNk07(JaV¡eR) | 42622 visualizaciones



intro 
e|------0------0------0-------0--------0--------0------0-------------------------| 
B|-----3------3------3-------3--------3--------3-------3-------------------------| 
G|----0------0------0-------0--------0--------0--------0-------------------------| 
D|---0------0------0-------0--------0--------0---------0-------------------------| 
A|--2------0-----------------------2--------0----------0-------------------------| 
E|----------------3-------3----------------------------3-------------------------| 


verse 
e|------0-------0--------0-------0--------0--------0-------0--------0------------| 
B|-----3-------3--------3-------3--------3--------3-------3--------3-------------| 
G|----0-------0--------0-------0--------0--------0-------0--------0--------------| 
D|---0-------0--------0-------0--------0--------0-------0--------0---------------| 
A|--2-------0-------------------------2--------0---------------------------------| 
E|-------------------3-------3-------------------------3--------3----------------| 

e|------0-------0--------0-------0--------0--------0-------0--------0------------| 
B|-----3-------3--------3-------3--------3--------3-------3--------3-------------| 
G|----0-------0--------0-------0--------0--------0-------0--------0--------------| 
D|---0-------0--------0-------0--------0--------0-------0--------0---------------| 
A|--2-------0-------------------------2--------0---------------------------------| 
E|-------------------3-------3-------------------------3--------3----------------| 

e|-------0------0------0-------0----------0---------0-------0--------------------| 
B|------3------3------3-------3----------3---------3--------3--------------------| 
G|-----0------0------0-------0----------0---------0---------0--------------------| 
D|----0------0------0-------0----------0---------0----------0--------------------| 
A|---2------0-------------------------2---------0-----------0--------------------| 
E|-----------------3-------3--------------------------------3--------------------| 

Chorus 
e|----------------------------------------------------------------| 
B|----------------------------------------------------------------| 
G|----------------------------------------------------------------| 
D|--9-9-9-9-9-12-12-12-12-12-14-14-14-14-14-5-5-5-5-5-------------| 
A|--9-9-9-9-9-12-12-12-12-12-14-14-14-14-14-5-5-5-5-5--------x 2--| 
E|--7-7-7-7-7-10-10-10-10-10-12-12-12-12-12-3-3-3-3-3-------------| 

e|-------------------------------------------------------------------------| 
B|-------------------------------------------------------------------------| 
G|-------------------------------------------------------------------------| 
D|--9-9-9-9-9-9-12-12-12-12-12-12-14-14-14-14-14-14-5-5-5-5-5-5------------| 
A|--9-9-9-9-9-9-12-12-12-12-12-12-14-14-14-14-14-14-5-5-5-5-5-5-------x 2--| 
E|--7-7-7-7-7-7-10-10-10-10-10-10-12-12-12-12-12-12-3-3-3-3-3-3------------| 


verse 
e|------0-------0--------0-------0--------0--------0-------0--------0------------| 
B|-----3-------3--------3-------3--------3--------3-------3--------3-------------| 
G|----0-------0--------0-------0--------0--------0-------0--------0--------------| 
D|---0-------0--------0-------0--------0--------0-------0--------0---------------| 
A|--2-------0-------------------------2--------0---------------------------------| 
E|-------------------3-------3-------------------------3--------3----------------| 




e|------0-------0--------0-------0--------0--------0-------0--------0------------| 
B|-----3-------3--------3-------3--------3--------3-------3--------3-------------| 
G|----0-------0--------0-------0--------0--------0-------0--------0--------------| 
D|---0-------0--------0-------0--------0--------0-------0--------0---------------| 
A|--2-------0-------------------------2--------0---------------------------------| 
E|-------------------3-------3-------------------------3--------3----------------| 

e|-------0------0------0-------0----------0---------0-------0--------------------| 
B|------3------3------3-------3----------3---------3--------3--------------------| 
G|-----0------0------0-------0----------0---------0---------0--------------------| 
D|----0------0------0-------0----------0---------0----------0--------------------| 
A|---2------0-------------------------2---------0-----------0--------------------| 
E|-----------------3-------3--------------------------------3--------------------| 


Bridge x 4 
e|--------------------------------------------------------------------------| 
B|--------------------------------------------------------------------------| 
G|--------------------------------------------------------------------------| 
D|-5-5-5-5-5-5-5-5-7-7-7-7-7-7-7-7-9-9-9-9-9-9-9-9-12-12-12-12-12-12-12-12--| 
A|-5-5-5-5-5-5-5-5-7-7-7-7-7-7-7-7-9-9-9-9-9-9-9-9-12-12-12-12-12-12-12-12--| 
E|-3-3-3-3-3-3-3-3-5-5-5-5-5-5-5-5-7-7-7-7-7-7-7-7-10-10-10-10-10-10-10-10--| 

interlude x 2 
e|--------------------------------------------------------------------0--| 
B|--------3--3-----------------3--3----3-------3--3----------------3-----| 
G|--0----------0---0-----0----------0----0---------0---0-----0-------0---| 
D|----0-0--------0---0-0---0-0-------0-----0-0-------0---0-0---0-0-------| 
A|-----------------------------------------------------------------------| 
E|-----------------------------------------------------------------------| 

e|--------------------------------------------------------------------3/6/9--| 
B|--------3--3-----------------3--3----3-------3--3----------------3---------| 
G|--0----------0---0-----0----------0----0---------0---0-----0-------0-------| 
D|----0-0--------0---0-0---0-0-------0-----0-0-------0---0-0---0-0-----------| 
A|---------------------------------------------------------------------------| 
E|---------------------------------------------------------------------------| 

Chorus 


e|----------------------------------------------------------------| 
B|----------------------------------------------------------------| 
G|----------------------------------------------------------------| 
D|--9-9-9-9-9-12-12-12-12-12-14-14-14-14-14-5-5-5-5-5-------------| 
A|--9-9-9-9-9-12-12-12-12-12-14-14-14-14-14-5-5-5-5-5--------x 2--| 
E|--7-7-7-7-7-10-10-10-10-10-12-12-12-12-12-3-3-3-3-3-------------| 

e|-------------------------------------------------------------------------| 
B|-------------------------------------------------------------------------| 
G|-------------------------------------------------------------------------| 
D|--9-9-9-9-9-9-12-12-12-12-12-12-14-14-14-14-14-14-5-5-5-5-5-5------------| 
A|--9-9-9-9-9-9-12-12-12-12-12-12-14-14-14-14-14-14-5-5-5-5-5-5-------x 2--| 
E|--7-7-7-7-7-7-10-10-10-10-10-10-12-12-12-12-12-12-3-3-3-3-3-3------------| 

Play this until end 

e|---------------------------------------------------------------| 
B|---------------------------------------------------------------| 
G|---------------------------------------------------------------| 
D|--9-9-9-9-9-9-12-12-12-12-12-12-14-14-14-14-14-14-5-5-5-5-5-5--| 
A|--9-9-9-9-9-9-12-12-12-12-12-12-14-14-14-14-14-14-5-5-5-5-5-5--| 
E|--7-7-7-7-7-7-10-10-10-10-10-10-12-12-12-12-12-12-3-3-3-3-3-3--| 





Calificar esta versión:
Aviso: Este fichero es trabajo propio de su transcriptor y representa su interpretación personal de la canción. El material contenido en esta página es para exclusivo uso privado, por lo que se prohibe su reproducción o retransmisión, así como su uso para fines comerciales.