Call It Karma, Silverstein (acordes)

Autor: sebanasho | 18509 visualizaciones

dolammimresol


                  Do
Blame it on the weather, but i'm a mess 
           Mim               Sol 
and this february darkness. has me hating everyone 
 Do                  
and i know i give you comfort, but this trouble makes me sick 
         Mim                            Sol 
and the longer i lay here, i know it's harder to get up 

without you 


Lam

             Do
lose another day here 
             Mim
lose another year here 
         Sol 
i'm with you 


          Do
find me something out there, that's making sense 
          Mim                          Sol 
and it's just another trend carefully hidden in your dress 
         Do                            
and the cycles neverending, and the fashions overdone 
         Mim                           Sol 
and the further that i run away, the further i'll come back 

to shelter... 


Lam

             Do
lose another day here 
             Mim
lose another year here 
         Sol 
i'm with you 


Do
             Mim                   Do
you are the fire, on my apartment floor 
          Mim          Sol        Do
sixteen stories, i'd rather burn then fall 
          Mim                       Do
it isn't fate, that took us all by storm 
               Mim       Sol 
it's just the turn of a card 


SOLO:


e-----------------------------------------------------------------------
b-------------------------------------------10--------------------------
g-----9-10-9-9-10-9----------9-10-9-9-10-12----12-10-9-12-10-9----9-----
D---10--------------10----10-----------------------------------10---10--
A-8---------------------8-----------------------------------------------
E-----------------------------------------------------------------------



e-----------------------------------------------------------------------
b-13-12----13-12----13-12-12-13-15-13-12----12--------------------------
g-------12-------12----------------------12-----------------------------
D-----------------------------------------------------------------------
A-----------------------------------------------------------------------
E-----------------------------------------------------------------------



e-15-13-12--15-13-12--15-13-12--15-13-12--15-13-12--15-13-12--15-13-12--
b-----------------------------------------------------------------------
g-----------------------------------------------------------------------
D-----------------------------------------------------------------------
A-----------------------------------------------------------------------
E-----------------------------------------------------------------------
 


Lam

             Do
lose another day here 
             Mim
lose another year here 
         Sol 
i'm with you 


Do
             Mim                   Do
you are the fire, on my apartment floor 
          Mim          Sol        Do
sixteen stories, i'd rather burn then fall 
          Mim                       Do
it isn't fate, that took us all by storm 
               Mim       Sol 
it's just the turn of a card 


Mim

         Re
goodbye old friend 
Do                Mim
goodbye goodnight 
          Re
i'll move on 
       Do                                Mim
you'll call it fate, i'll call it karma 
            Re      Do
we had our time, it was fun 
                Mim
while it lasted 


           Re         Do
i'll look back, with honor 

and no regrets 
   Mim           Re
i won't be mad, won't feel bad 
        Do                      Mim
these memories will never leave me 
          Re
don't be sad 
       Do                    Mim
cause life goes on, life goes on 
              Re
it's getting too late 
  Do         Mim
tomorrow is here
 





Calificar esta versión:
Aviso: Este fichero es trabajo propio de su transcriptor y representa su interpretación personal de la canción. El material contenido en esta página es para exclusivo uso privado, por lo que se prohibe su reproducción o retransmisión, así como su uso para fines comerciales.