Buen Rock (intro), Shit With Diamonds (tablatura)

Autor: Vanrollo21 | 34981 visualizaciones



1 ----------------------------------------
2 ----------------------------------------
3 -7-5-7-5-7-5-7-5-7-7-7-7-7--------------
4 -7-5-7-5-7-5-7-5-7-7-7-7-7--------------
5 -5-3-5-3-5-3-5-3-5-5-5-5-5--------------
6 ----------------------------------------
(REPITE DOS VECES)

1 -------------------------------------------------
2 -------------------------------------------------
3 -5-5-7-7-7-7-7-7-7-------------------------------
4 -5-5-7-7-7-7-7-7-7-------------------------------
5 -3-3-5-5-5-5-5-5-5-------------------------------
6 -------------------------------------------------
REPITE DOS VECES

1 ---------------
2 ---------------
3 ---------------
4 ---------------
5 ---------------
6 -0-------------





Calificar esta versión:
Aviso: Este fichero es trabajo propio de su transcriptor y representa su interpretación personal de la canción. El material contenido en esta página es para exclusivo uso privado, por lo que se prohibe su reproducción o retransmisión, así como su uso para fines comerciales.