Bully Scholarship Edition, Shawn Lee (tablatura)

Autor: NikoRPJ9 | 30415 visualizaciones



Primera parte: 
g | 9-9-9-9-5-5-7-7 -------------- | 
d | ----------------------------- | 
a | -7-7-7-7-3-3-5-5 ------------- |
e | ----------------------------- | 

g | 9-9-9-9 ------- 5-5-5-5 -------- | 
d | ----------------------------- | 
A | -7-7-7-7-6-5-4-3-3-3-3-4-5-6 - | 
e | ----------------------------- | 

Segunda parte: 
g | -------------------------------- | 
d | -------------------------------- | 
A | 7-7-7-7-7-7-7-7-3-3-3-3-3-3-5-5 - | 
e | -------------------------------- | 

tercera parte: 
g | --------- 14-12---------- 17-16-14-12-14-12 - | 
d | ------ 14 ------- 14----------- -------------- | 
a | ------------------ 15-15----------- -------- | 
e | 12-12----------- -------------------------- | 

g | --------- 14-12---------- 17 ------- 19 ---- | 
d | ------ 14 ------- 14----------- ----------- | 
A | ------------------ 15-15 ---- 17-17 ---- 17 - | 
e | 12-12----------- ----------------------- | 


Cuarta Parte: 
g | --------- 8-8-8-8 --------------- | 
d | -7-7-7-7 --------- 7-7-7-7-9-9-9 - | 
a | -------- 6-6-6-6 ---------------- | 
e | 5-5-5-5 --------- 5-5-5-5-7-7-7 - |





Calificar esta versión:
Aviso: Este fichero es trabajo propio de su transcriptor y representa su interpretación personal de la canción. El material contenido en esta página es para exclusivo uso privado, por lo que se prohibe su reproducción o retransmisión, así como su uso para fines comerciales.