Pretty Vacant, Sex Pistols (tablatura)

Autor: Masmetal | 25858 visualizaciones



Intro Riff:

e|----------------------------|----------------------
B|----------------------------|----------------------
G|----------2--2--------------|--------2-2-----------
D|----------------------2--2--|------------------2-2-(9X)
A|----0--0--------0--0--------|--0-0-------0-0-------
E|----------------------------|----------------------

Verse:
e|----------------------------------------------------
B|------------5---9-----------------------------------
G|------------5---9-------9---------------------------
D|----7---5---5---9---5---9---------------------------(10x)
A|----7---5---7---7---5---7---------------------------
E|----5---3-----------3-------------------------------

Chorus:
e|-------------------------------------------------
B|-------------------------------------------------
G|----7---5----------------------------------------
D|----7---5---7------------------------------------(6X)
A|----5---3---7------------------------------------
E|------------5------------------------------------


    Amaj    Gmaj    Dmaj    Emaj    Cmaj
e|---5---|---3---|-------|-------|-------|
B|---5---|---3---|---7---|---9---|---5---| 
G|---6---|---4---|---7---|---9---|---5---|(3x) 
D|---7---|---5---|---7---|---9---|---5---| 
A|---7---|---5---|---5---|---7---|---3---|
E|---5---|---3---|-------|-------|-------|





Calificar esta versión:
Aviso: Este fichero es trabajo propio de su transcriptor y representa su interpretación personal de la canción. El material contenido en esta página es para exclusivo uso privado, por lo que se prohibe su reproducción o retransmisión, así como su uso para fines comerciales.