E.m.i, Sex Pistols (tablatura)

Autor: Sid | 28249 visualizaciones



Intro:
            8x                                3x
e------------- --------------------------------- -------------------------|
b------------- --------------------------------- -------------------------|
g---1010-10--- ---3---3--3-3--3-3--------------- --3---3--3-3--3-3--------|
d---1010-10--- ---3---3--3-3--3-3--3~----3--5--- --3---3--3-3--3-3--3~----| pickslide
a----8-8--8--- ---1---0--1-1--3-3--3~----3--5--- --1---0--1-1--3-3--3~----|
e------------- --------------------1~----0--3--- -------------------1~----|


Verse:
                                     3x
e-------------------------------------- --------------------- ------|
b-------------------------------------- --------------------- ------|
g---3-3-3-3-3-3-3-3-------------------- ---3-3-3-3-3-3-3-3--- ------|
d---3-3-3-3-3-3-3-3--3-3-3-3-3-3-3-3--- ---3-3-3-3-3-3-3-3--- --3~--|
a---1-1-1-1-1-1-1-1--3-3-3-3-3-3-3-3--- ---1-1-1-1-1-1-1-1--- --3~--|
e--------------------1-1-1-1-1-1-1-1--- --------------------- --1~--|
p.m..........................................................


Chorus:
                                    3x
e------------------------------------- ---------------------------------|
b------------------------------------- ---------------------------------|
g---8-8-8----------------------------- ---8-8-8-------------10-12-10----|
d---8-8-8--8--8-8---8-8-8-8-8-8-8-8--- ---8-8-8--8--8-8-----10-12-10----|
a---6-6-6--8--8-8---8-8-8-8-8-8-8-8--- ---6-6-6--8--8-8------8-10--8----|
e----------6--6-6---6-6-6-6-6-6-6-6--- ----------6--6-6-----------------|


2nd Verse:

                               3x
e--------------------------------- -------------------------|
b--------------------------------- -------------------------|
g---3---3--3-3--3-3--------------- --3---3--3-3--3-3--------|
d---3---3--3-3--3-3--3~----3--5--- --3---3--3-3--3-3--3~----|
a---1---0--1-1--3-3--3~----3--5--- --1---0--1-1--3-3--3~----|
e--------------------1~----0--3--- -------------------1~----|


3rd Verse: (let ring)

e--------------------------------------------------------|
b--------------------------------------------------------|
g---6-------------6-6-----8--------6---------------------|
d--------6-------------6---------------6----5------------|
a--------------------------------------------------------|
e--------------------------------------------------------|


Solo:
                               4x
e-----7---77-77------------------|
b---7---7------------------------|
g----------------8v---6v---4v----|
d--------------------------------|
a--------------------------------|
e--------------------------------|





Calificar esta versión:
Aviso: Este fichero es trabajo propio de su transcriptor y representa su interpretación personal de la canción. El material contenido en esta página es para exclusivo uso privado, por lo que se prohibe su reproducción o retransmisión, así como su uso para fines comerciales.