Closing Time, Semisonic (tablatura)

Autor: ger98 | 31050 visualizaciones



Intro
E-----------------------------------------------------|
B-----------------------------------------------------|
G-------------7-7-7-77---------------5-5-5--55--------|
D--5-5-5--55--7-7-7-77---7-7-7--77---5-5-5--55--------|
A--5-5-5--55--5-5-7-55---7-7-7--77---3-3-3--33--------|
E--3-3-3--33-------------5-5-5--55--------------------|

asi es toda la cancion solo que con diferentes ritmos pero los mismos acordes, y a continuacion partes de teclado y solo, que estan en la cancion



piano
E-----7-----------7-------------10------------7-------|
B-----------8------------8-------------8-------------8|
G-----------------------------------------------------|
D-----------------------------------------------------|
A-----------------------------------------------------|
E-----------------------------------------------------|

E-----7-----------7-------------8------------7--------|
B-----------8------------8-------------8-------------8|
G-----------------------------------------------------|
D-----------------------------------------------------|
A-----------------------------------------------------|
E-----------------------------------------------------|

Solo
E-------------------11--10----------------------------|
B--11-------11--13------------13---11-------11--------|
G------13------------------------------12-------------|
D-----------------------------------------------------|
A-----------------------------------------------------|
E-----------------------------------------------------|

E-----------------------11--10------------------------|
B-----11-------11--13------------13---11-------11-----|
G-10-----13------------------------------12-----------|
D-----------------------------------------------------|
A-----------------------------------------------------|
E-----------------------------------------------------|

E-----------------------11--10------------------------|
B-----11-------11--13------------13---11-------11-----|
G-10-----13------------------------------12-----------|
D-----------------------------------------------------|
A-----------------------------------------------------|
E-----------------------------------------------------|





Comentarios del colaborador: :)

Calificar esta versión:
Aviso: Este fichero es trabajo propio de su transcriptor y representa su interpretación personal de la canción. El material contenido en esta página es para exclusivo uso privado, por lo que se prohibe su reproducción o retransmisión, así como su uso para fines comerciales.