I Promise You, Selena Gomez (tablatura)

Autor: gian_i_love_music | 46065 visualizaciones

(intro and verse)
E |---7-------6-------4--------7------|
B |---7-------6-------4--------7------|
G |---7-------8-------4--------9------|
D |---9-------8-------6--------9------|
A |---9-------6-------6--------7------|
E |---7---------------4---------------|
(1x for intro)
(2x for verse)

(pre-chorus)
E |-------------------------------------------------------|
B |---------4-------6-------4------6----------------------|
G |---------4-------6-------4------6----------------------|
D |---6-----2-------4-------2------4----------------------|
A |---6---------------------------------------------------|
E |---4---------------------------------------------------|

(chorus)
E |----------------------------------------------------|
B |----------------------------------------------------|
G |-----9----------4-----------------------------------|
D |-----9----------4----------4------------------------|   4x
A |-----7----------2----------4------------------------|
E |---------------------------2------------------------|

(repeat verse)
(repeat pre-chorus)
(repeat chorus)

(bridge)
E |---------------------------------------------------|
B |---------------------------------------------------|
G |------------4-----------------------4----6----8----|
D |------6-----4-----2------4-----6----4----6----8----|
A |------6-----2-----2------4-----6----2----4----6----|
E |------4-----------0------2-----4-------------------|

(repeat chorus)

(guitar 2)

(intro and after chorus)
E |--7-----7/9---11-----6-----6/7--9-----7--------9--11------12--11---------|
B |-----7------------------------------------9----------/12-----------------|
G |------------------------8------------------------------------------------|
D |-------------------------------------------------------------------------|
A |-------------------------------------------------------------------------|
E |-------------------------------------------------------------------------|

E |---9----7----6---6h7p6------------------------------------|
B |-------------------------9-----7----5---------------------|
G |----------------------------------------------------------|
D |----------------------------------------------------------|
A |----------------------------------------------------------|
E |----------------------------------------------------------|

(prechorus)
E |---7--------7--------9----------7-----------9---------------|
B |------9---------7---------9---------7-------7---------------|
G |------------------------------------------------------------|
D |------------------------------------------------------------|
A |------------------------------------------------------------|
E |------------------------------------------------------------|

(chorus)
E |---------------9---------------------|
B |----12-------------------------------|
G |----------11---------11--------------|   2x
D |-------------------------------------|
A |-------------------------------------|
E |-------------------------------------|

E |---------------9---------------------|
B |----11-------------------------------|
G |----------11---------11--------------|   2x
D |-------------------------------------|
A |-------------------------------------|
E |-------------------------------------|

(bridge)
E |--------11---------------11------------------11-------------11---------|
B |-12--------------12-------------------12-------------12----------------|
G |-----13-----13--------13-----13----------11-----11-------11----11------|
D |-----------------------------------------------------------------------|
A |-----------------------------------------------------------------------|
E |-----------------------------------------------------------------------|

E |----------12----------------12---------12---11---9---------------------|
B |--12---------------12--------------------------------11----------------|
G |------11-----11---------11-------11------------------------------------|
D |-----------------------------------------------------------------------|
A |-----------------------------------------------------------------------|
E |-----------------------------------------------------------------------|

E |--------11---------------11------------------11-------------11---------|
B |-12--------------12-------------------12-------------12----------------|
G |-----13-----13--------13-----13----------11-----11-------11----11------|
D |-----------------------------------------------------------------------|
A |-----------------------------------------------------------------------|
E |-----------------------------------------------------------------------|

E |-----------13----------------13-----------11-11-11-11-11-11-11-11-11----|
B |-14----------------14---------------------------------------------------|
G |-----13-------13--------13---------13-----------------------------------|
D |------------------------------------------------------------------------|
A |------------------------------------------------------------------------|
E |------------------------------------------------------------------------|
Calificar esta versión:
Aviso: Este fichero es trabajo propio de su transcriptor y representa su interpretación personal de la canción. El material contenido en esta página es para exclusivo uso privado, por lo que se prohibe su reproducción o retransmisión, así como su uso para fines comerciales.