Y Que, Seguimos Perdiendo (acordes)

Autor: rondalla_bachilleres_apatzingan | 16344 visualizaciones

b5g5


pzZ toda la cancion va con estos acordes,
sin letra pro k me da weba

inicio y coro

e|--------------------------
B|--------------------------
G|---7----4-----------------
D|---7----4---5----7--------
A|---5----2---5----7--------
E|------------3----5--------


estrofas no kambia mucho solo kambia de B5 a G5
y lo demas sigue igual asi:

Estrofas

e|---------------------------
B|---------------------------
G|---7--------4--------------
D|---7----5---4----7---------
A|---5----5---2----7---------
E|--------3--------5---------


ay se las dejo
pa k la cheken

saludos

Todo fue posible gracias a nuestra banda Mala Zuerte punk rock apatzinguense xD





Calificar esta versión:
Aviso: Este fichero es trabajo propio de su transcriptor y representa su interpretación personal de la canción. El material contenido en esta página es para exclusivo uso privado, por lo que se prohibe su reproducción o retransmisión, así como su uso para fines comerciales.