When You Come Into My Life, Scorpions (tablatura)

Autor: zpawn | 18143 visualizaciones



Simbologia:
b | Bend to
r | Release bend
/ | Slide up to
\ | Slide down to
h | Hammer on to
p | Pull off to
~ | Hold note
^ | Upstroke
()| Ghost Note
. | Palm Muted
v | Vibrato

****************************************************************
Intro: Guitarra 1 
e|----------------------------|
B|----------------------------|
G|-------4------5------4------|
D|-----7----7------7--------7-|
A|---7--------7------7----7---|
E|-5--------------------------|

e|--------------3-------------|
B|-------3-------------3------|
G|-----5----5------5--------5-|
D|---5--------5------5----5---|
A|-3--------------------------|
E|----------------------------|

E|----------------------------|
B|------------------------1~--|
G|-------2--4--5--4--2----0~--|
D|-----5---------------5--0~--|
A|---5--------------------3~--|
E|-3----------------------1~--|
                          ^
Verso 1: Guitarra 1 
e|----------------------------|
B|--------------5-------------|
G|-------4-------------4------|
D|-----7----7------7--------7-|
A|---7--------7------7----7---|
E|-5--------------------------|

e|--------------3-------------|
B|-------3-------------3------|
G|-----5----5------5--------5-|
D|---5--------5------5----5---|
A|-3--------------------------|
E|----------------------------|

e|----------------------------|
B|----------------------------|
G|-------2--4--5--4--2--------|
D|-----5----------------5-----|
A|---5--------------------5---|
E|-3--------------------------|

e|----------------------------|
B|--------------1-------------|
G|-------2-------------2------|
D|-----3----3------3--------3-|
A|---3--------3------3----3---|
E|-1--------------------------|

e|----------------------------|
B|--------------5-------------|
G|-------4-------------4------|
D|-----7----7------7--------7-|
A|---7--------7------7----7---|
E|-5--------------------------|

e|--------------3-------------|
B|-------3-------------3------|
G|-----5----5------5--------5-|
D|---5--------5------5----5---|
A|-3--------------------------|
E|----------------------------|

e|----------------------------|
B|----------------------------|
G|-------2--4--5--4----2------|
D|-----5------------------5---|
A|---5------------------------|
E|-3-----------------3--------|

e|----------------------------|
B|----------1-----------------|
G|-------2-----2-------2------|
D|-----3-------------3----3---|
A|---3-------------3----------|
E|-1-------------1------------|

e|----------------------------|
B|-------3------3-----3-------|
G|-----5------5-----5---5-----|
D|---5------5-----5-------5---|
A|-3--------------------------|
E|----------------------------|
                              
e|-0~-------------------------|
B|-0~-------------------------|
G|-1~-------------------------|
D|-2~-------------------------|
A|-2~-------------------------|
E|-0~-------------------------|
   ^
Verso 2: Guitarra 1 , entra aqui la bateria 
e|----------------------------|
B|--------------5-------------|
G|-------4-------------4------|
D|-----7----7------7--------7-|
A|---7--------7------7----7---|
E|-5--------------------------|

e|--------------3-------------|
B|-------3-------------3------|
G|-----5----5------5--------5-|
D|---5--------5------5----5---|
A|-3--------------------------|
E|----------------------------|

e|----------------------------|
B|-------------3--------------|
G|-------2--4-----2--2-4------|
D|-----5----------------------|
A|---5------------------------|
E|-3--------------------------|

e|----------------------------|
B|----------1-----------------|
G|-------2-----2-------2------|
D|-----3-------------3----3---|
A|---3-------------3----------|
E|-1-------------1------------|

e|----------------------------|
B|-------3------3-----3-------|
G|-----5------5-----5---5-----|
D|---5------5-----5-------5---|
A|-3--------------------------|
E|----------------------------|
                                   
e|-0~-------------------------|
B|-0~-------------------------|
G|-1~-------------------------|
D|-2~-------------------------|
A|-2~-------------------------|
E|-0~-------------------------|
   ^

Coros: Guitarra 1
e|----------------------------|
B|-----1------1------1------1-|
G|---2------2------2------2---|
D|-3------3------3------3-----|
A|----------------------------|
E|----------------------------|

       Guitarra 2
e|----------------------------|
B|----------------------------|
G|----------------------------|
D|-3~-------------------------|
A|-3~-------------------------|
E|-1~-------------------------|

        Gt- 1   
e|----------------------------|
B|-----3------3------3------3-|
G|---2------2------2------2---|
D|-0------0------0------0-----|
A|----------------------------|
E|----------------------------|

        Gt- 2
e|----------------------------|
B|----------------------------|
G|-7~-------------------------|
D|-7~-------------------------|
A|-5~-------------------------|
E|----------------------------|

        Gt- 1
e|----------------------------|
B|-----1------1------1------1-|
G|---2------2------2------2---|
D|-3------3------3------3-----|
A|----------------------------|
E|----------------------------|

        Gt- 2
e|----------------------------|
B|----------------------------|
G|----------------------------|
D|-3~-------------------------|
A|-3~-------------------------|
E|-1~-------------------------|

        Gt- 1
e|----------------------------|
B|-------0-----0-----0~-------|
G|-----1-----1-----1----------|
D|---2-----2-----2------------| 
A|-2--------------------------|
E|----------------------------|

        Gt- 2
e|----------------------------|
B|----------------------------|
G|----------------------------|
D|-2~-------------------------|
A|-2~-------------------------|
E|-0~-------------------------|

Pre-Verso: Guitarra 1 solamente
e|----------------------------|
B|----------------------------|
G|-------4------4------4------|
D|-----7----7------7-----7----|
A|---7--------7------7-----7--|
E|-5--------------------------|

e|----------------------------|
B|----------------------------|
G|-------4------5~------------|
D|-----7----7-----------------|
A|---7--------7---------------|
E|-5--------------------------|

e|----------------------------|
B|----------------------------|
G|-------4------4------4------|
D|-----7----7------7-----7----|
A|---7--------7------7-----7--|
E|-5--------------------------|

e|----------------------------|
B|----------------------------|
G|-------4------5~------------|
D|-----7----7-----------------|
A|---7--------7---------------|
E|-5--------------------------|

Verso 3: Guitarra 1 
e|----------------------------|
B|--------------5-------------|
G|-------4-------------4------|
D|-----7----7------7--------7-|
A|---7--------7------7----7---|
E|-5--------------------------|

e|--------------3-------------|
B|-------3-------------3------|
G|-----5----5------5--------5-|
D|---5--------5------5----5---|
A|-3--------------------------|
E|----------------------------|

e|----------------------------|
B|----------------------------|
G|-------2--4--5--4--2--------|
D|-----5----------------5-----|
A|---5--------------------5---|
E|-3--------------------------|

e|----------------------------|
B|---------------1---1--------|
G|-------2--------------------|
D|-----3----3------3---3------|
A|---3--------3----------3----|
E|-1--------------------------|

e|----------------------------|
B|--------------5-------------|
G|-------4-------------4------|
D|-----7----7------7--------7-|
A|---7--------7------7----7---|
E|-5--------------------------|

e|--------------3-------------|
B|-------3-------------3------|
G|-----5----5------5--------5-|
D|---5--------5------5----5---|
A|-3--------------------------|
E|----------------------------|

e|----------------------------|
B|----------------------------|
G|-------2--4--5--4--2--------|
D|-----5----------------5-----|
A|---5--------------------5---|
E|-3--------------------------|

e|----------------------------|
B|--------------1-------------|
G|-------2-------------2------|
D|-----3----3------3--------3-|
A|---3--------3------3----3---|
E|-1--------------------------|

e|----------------------------|
B|-------3------3-----3-------|
G|-----5------5-----5---5-----|
D|---5------5-----5-------5---|
A|-3--------------------------|
E|----------------------------|
                        
e|-0~-------------------------|
B|-0~-------------------------|
G|-1~-------------------------|
D|-2~-------------------------|
A|-2~-------------------------|
E|-0~-------------------------|

Choro 2:
          Gt- 1
e|----------------------------|
B|-----1------1------1------1-|
G|---2------2------2------2---|
D|-3------3------3------3-----|
A|----------------------------|
E|----------------------------|

          Gt- 2
e|----------------------------|
B|----------------------------|
G|----------------------------|
D|-3~-------------------------|
A|-3~-------------------------|
E|-1~-------------------------|

          Gt- 1
e|----------------------------|
B|-----3------3------3------3-|
G|---2------2------2------2---|
D|-0------0------0------0-----|
A|----------------------------|
E|----------------------------|

          Gt- 2
e|----------------------------|
B|----------------------------|
G|-7~-------------------------|
D|-7~-------------------------|
A|-5~-------------------------|
E|----------------------------|

          Gt- 1
e|----------------------------|
B|-----1------1------1------1-|
G|---2------2------2------2---|
D|-3------3------3------3-----|
A|----------------------------|
E|----------------------------|

          Gt- 2
e|----------------------------|
B|----------------------------|
G|----------------------------|
D|-3~-------------------------|
A|-3~-------------------------|
E|-1~-------------------------|

          Gt- 1
e|----------------------------|
B|-------0-----0-----0~-------|
G|-----1-----1-----1----------|
D|---2-----2-----2------------| 
A|-2--------------------------|
E|----------------------------|
 
          Gt- 2
e|----------------------------|
B|----------------------------|
G|----------------------------|
D|-2~-------------------------|
A|-2~-------------------------|
E|-0~-------------------------|

          Gt- 1
e|----------------------------|
B|-----1------1------1------1-|
G|---2------2------2------2---|
D|-3------3------3------3-----|
A|----------------------------|
E|----------------------------|

          Gt- 2
e|----------------------------|
B|----------------------------|
G|----------------------------|
D|-3~-------------------------|
A|-3~-------------------------|
E|-1~-------------------------|

          Gt- 1
e|----------------------------|
B|-----3------3------3------3-|
G|---2------2------2------2---|
D|-0------0------0------0-----|
A|----------------------------|
E|----------------------------|
 
          Gt- 2
e|----------------------------|
B|----------------------------|
G|-7~-------------------------|
D|-7~-------------------------|
A|-5~-------------------------|
E|----------------------------|

          Gt- 1
e|----------------------------|
B|-----1------1------1------1-|
G|---2------2------2------2---|
D|-3------3------3------3-----|
A|----------------------------|
E|----------------------------|

          Gt- 2
e|----------------------------|
B|----------------------------|
G|----------------------------|
D|-3~-------------------------|
A|-3~-------------------------|
E|-1~-------------------------|

          Gt- 1
e|----------------------------|
B|-------0-----0-----0~-------|
G|-----1-----1-----1----------|
D|---2-----2-----2------------| 
A|-2--------------------------|
E|----------------------------|

          Gt- 2
e|------------------/12-------|
B|----------------------------|
G|----------------------------|
D|-2~-------------------------|
A|-2~-------------------------|
E|-0~-------------------------|

Interludio: Guitarra 1 y 2
e|----------------------------|
B|--------------5-------------|
G|-------4-------------4------|
D|-----7----7------7--------7-|
A|---7--------7------7----7---|
E|-5--------------------------|

e|--------------3-------------|
B|-------3-------------3------|
G|-----5----5------5--------5-|
D|---5--------5------5----5---|
A|-3--------------------------|
E|----------------------------|

e|----------------------------|
B|----------------------------|
G|----9-\7-\5-----------------|
D|----------------------------|
A|----------------------------|
E|----------------------------|

e|----------------------------|
B|----------------------------|
G|--------------------------5-|
D|------------------------7---|
A|----------------------------|
E|----------------------------|

e|----------------------------|
B|----------------------------|
G|-------2--4--5--4--2--------|
D|-----5----------------5-----|
A|---5--------------------5---|
E|-3--------------------------|

e|----------------------------|
B|-----------------------8~---|
G|-7-7b8r7--------------------|
D|----------------------------|
A|----------------------------|
E|----------------------------|

e|----------------------------|
B|----------1-----------------|
G|-------2-----2--------2-----|
D|-----3----------3---3-----3-|
A|---3--------------3-----3---|
E|-1--------------------------|
1:
2:
e|----------------------------|
B|----------------------------|
G|----------------------------|
D|----------------------------|
A|----------------7-7-7-7-7-7-|
E|----------------5-5-5-5-5-5-|

Pre Coro: Guitarra 2 y 3

e|----------------------------|
B|----------------------------|
G|-7~---------------9~--------|
D|-7~---------------9~--------|
A|-5~---------------7~--------|
E|----------------------------|
2:
3:
e|----------------------------|
B|----888-6-5-6-5-3-5---5h6p5-|
G|----------------------------|
D|----------------------------|
A|----------------------------|
E|----------------------------|

Coros: Guitarra 1 y 2


e|----------------------------|
B|-----1------1------1------1-|
G|---2------2------2------2---|
D|-3------3------3------3-----|
A|----------------------------|
E|----------------------------|
1:
2:
e|----------------------------|
B|----------------------------|
G|----------------------------|
D|-3~-------------------------|
A|-3~-------------------------|
E|-1~-------------------------|

e|----------------------------|
B|-----3------3------3------3-|
G|---2------2------2------2---|
D|-0------0------0------0-----|
A|----------------------------|
E|----------------------------|
1:
2:
e|----------------------------|
B|----------------------------|
G|-7~-------------------------|
D|-7~-------------------------|
A|-5~-------------------------|
E|----------------------------|

e|----------------------------|
B|-----1------1------1------1-|
G|---2------2------2------2---|
D|-3------3------3------3-----|
A|----------------------------|
E|----------------------------|
1:
2:
e|----------------------------|
B|----------------------------|
G|----------------------------|
D|-3~-------------------------|
A|-3~-------------------------|
E|-1~-------------------------|

e|----------------------------|
B|-------0-----0-----0~-------|
G|-----1-----1-----1----------|
D|---2-----2-----2------------| 
A|-2--------------------------|
E|----------------------------|
1:
2:
e|----------------------------|
B|----------------------------|
G|----------------------------|
D|-2~-------------------------|
A|-2~-------------------------|
E|-0~-------------------------|





Calificar esta versión:
Aviso: Este fichero es trabajo propio de su transcriptor y representa su interpretación personal de la canción. El material contenido en esta página es para exclusivo uso privado, por lo que se prohibe su reproducción o retransmisión, así como su uso para fines comerciales.