New Generation, Scorpions (tablatura)

Autor: zpawn | 28343 visualizaciones



Intro:  
       Guitarra I
e|-----------------------5/3-----------|
B|-----------------------5/3-----------|
G|-------------------------------------|
D|--5---5-X--5--X--5--5----------------|
A|--5---5-X--5--X--5--5----------------|
E|--3---3-X--3--X--3--3----------------|

e|-----------------------3/5-----------|
B|-----------------------3/5-----------|
G|-------------------------------------|
D|--5---5-X--5--X--5--5----------------|
A|--5---5-X--5--X--5--5----------------|
E|--3---3-X--3--X--3--3----------------|

       Guitarra II
e|-------------------------------------|
B|-------------------------------------|
G|-------------------------------------|
D|--5---5-X--5--X--5--5----------------|
A|--5---5-X--5--X--5--5----------------|
E|--3---3-X--3--X--3--3----------------|

e|-------------------------------------|
B|-------------------------------------|
G|-------------------------------------|
D|--5---5-X--5--X--5--5---5-3----------|
A|--5---5-X--5--X--5--5--------1--0----|
E|--3---3-X--3--X--3--3----------------|

Coro:
       Guitarra I
e|-----------------------5/3-----------|
B|-----------------------5/3-----------|
G|-------------------------------------|
D|--5---5-X--5--X--5--5----------------|
A|--5---5-X--5--X--5--5----------------|
E|--3---3-X--3--X--3--3----------------|

e|-----------------------3/5-----------|
B|-----------------------3/5-----------|
G|-------------------------------------|
D|--5---5-X--5--X--5--5----------------|
A|--5---5-X--5--X--5--5----------------|
E|--3---3-X--3--X--3--3----------------|

       Guitarra II
e|-------------------------------------|
B|-------------------------------------|
G|-------------------------------------|
D|--2---2-X--2--X--2--2----------------|
A|--2---2-X--2--X--2--2--3/5-----------|
E|--0---0-X--0--X--0--0--1/3-----------|

e|-------------------------------------|
B|-------------------------------------|
G|-------------------------------------|
D|--2---2-X--2--X--2--2---5-3----------|
A|--2---2-X--2--X--2--2--------1--0----|
E|--0---0-X--0--X--0--0----------------|





Calificar esta versión:
Aviso: Este fichero es trabajo propio de su transcriptor y representa su interpretación personal de la canción. El material contenido en esta página es para exclusivo uso privado, por lo que se prohibe su reproducción o retransmisión, así como su uso para fines comerciales.