Eye Of The Tiger (intro), Scorpions (tablatura)

Autor: Sebriv | 22606 visualizaciones



este es el intro

e------------------------------------------------------
b------------------------------------------------------
g------5-----5-3-5------5-3-5------5-------------------
d------5-----5-3-5------5-3-5------5-5-6---------------  x2
a------3-----3-1-3------3-1-3------3-5-6---------------
e------------------------------------3-4---------------


e------------------------------------------------------
b------------------------------------------------------
g------5-x--xx5-3-5-x--xx5-3-5-x--xx-5-----------------
d------5-x--xx5-3-5-x--xx5-3-5-x--xx-5-5-6------------- x2
a------3-x--xx3-1-3-x--xx3-1-3-x--xx-3-5-6-------------
e--------------------------------------3-4-------------



esta es mi primera musica espero q les haya gustado

saludos desde Paraguay!





Calificar esta versión:
Aviso: Este fichero es trabajo propio de su transcriptor y representa su interpretación personal de la canción. El material contenido en esta página es para exclusivo uso privado, por lo que se prohibe su reproducción o retransmisión, así como su uso para fines comerciales.