Alien Nation, Scorpions (tablatura)

Autor: Ursua | 16411 visualizaciones



Alien Nation --------- Scorpions

intro:
-------------------------------------------------
-------------------------------------------------
-------------------------------------------------
---9-8-----------------------9-8---------12-13--
-6------6-9-8-6--11-9-----6-----6-9-8-6--10-12--
-----------------9--7---------------------------


---------------------------------------------
---------------------------------------------
---------------------------------------------
-14--15--14-x2--11--11---9--11--9--11--9-----
-12--13--12------9---9---7---9--7---9--7?----
---------------------------------------------

-----------------------------------------------
-----------------------------------------------
-----------------------------------------------
-12--12--9--12--11--9--------------------------
-12--12--9--12--11--9--11--11--9--11--9--11--9-
-10--10--7--10--9---7---9--9---7--9---7--9---7-

-----------------------------------------------
-----------------------------------------------
-12--12?-9__11------11--11--11--11---------------
-12--12?-9__11--x2?-12--12--12--12--14----------
-10--10?-7__9-------10--10--10--10--12----------
-----------------------------------------------

------------------------------
------------------------------
------------------------------
-11--11---9--11--9--11--9-----
--9---9---7---9--7---9--7?----
------------------------------

-----------------------------------------------
-----------------------------------------------
-12--12--9--12--11--9--------------------------
-12--12--9--12--11--9--11--11--9--11--9--11--9-
-10--10--7--10--9---7---9--9---7--9---7--9---7-
-----------------------------------------------------------------------------------

--------------------------------------------------------------
------------------ -------------------------------------------
-12--12?-9__11---- -14-----12-----14-----10--11---------------
-12--12?-9__11?x3---14-x6--12-x6--14-x4--10--11?x2-deslis de arriba
-10--10?-7__9-------12-----10-----12-----8---9------hacia abajo.
--------------------------------------------------------------

Empiezas de nuevo y utiliza los acordes k te di para manejarlos a tu conveniencia según de como cambie la música.





Calificar esta versión:
Aviso: Este fichero es trabajo propio de su transcriptor y representa su interpretación personal de la canción. El material contenido en esta página es para exclusivo uso privado, por lo que se prohibe su reproducción o retransmisión, así como su uso para fines comerciales.