Babylon, Scars On Broadway (tablatura)

Autor: Lnirvana | 24814 visualizaciones



Afinacion: 
1ª   2ª   3ª   4ª   5ª   6ª
Eb|  Bb|  Gb|  Db|  Ab|  Db

[INTRO]

Db|------0-----0-----0-- 
Ab|----0-----0-----0---- 
Db|--0-----0-----0------ 
(4x)

     Run..     ning    to       Babylon
Db|------0---------0-------0--------0-----0-----0--
Ab|----0--0-0----0---0---0---0----0-----0-----0----
Db|--5-----5---7-------8--------0-----0-----0------

     Run       all the  way to   Babylon
Db|------0--------------------------0-----0-----0--
Ab|----0--0-0-----0---0---0---0----0-----0-----0---
Db|--5-----5----9---8---7---8----0-----0-----0-----

      Meet         you         there in Babylon
Gb|--------------------------------6-------6--------
Db|-------3--------3-----------------7-------7---7--
Ab|-----3---3--------3---3-------7-------7-----7----
Db|---3----------3-----3-------7--------------------

     oonnn...
Db|------0-----0-----0--
Ab|----0-----0-----0----
Db|--0-----0-----0------
(2x)

      Meet         you         there in Babylon
Gb|--------------------------------6-------6--------
Db|-------3--------3-----------------7-------7---7--
Ab|-----3---3--------3---3-------7-------7-----7----
Db|---3----------3-----3-------7--------------------

*bateria*

Db|------0-----0-----0--
Ab|----0-----0-----0----
Db|--0-----0-----0------
(4x)

     Run..     ning    to       Babylon
Db|------0---------0-------0--------0-----0-----0--
Ab|----0--0-0----0---0---0---0----0-----0-----0----
Db|--5-----5---7-------8--------0-----0-----0------

     Run       all the  way to   Babylon
Db|------0--------------------------0-----0-----0--
Ab|----0--0-0-----0---0---0---0----0-----0-----0---
Db|--5-----5----9---8---7---8----0-----0-----0-----

      Meet         you         there in Babylon
Gb|--------------------------------6-------6--------
Db|-------3--------3-----------------7-------7---7--
Ab|-----3---3--------3---3-------7-------7-----7----
Db|---3----------3-----3-------7--------------------


     oonnn...
Db|------0-----0-----0--
Ab|----0-----0-----0----
Db|--0-----0-----0------
(2x)

      Meet         you          there       in Babylon
Gb|--------------------------------6----
Db|-------3--------3-----------------7--
Ab|-----3---3--------3---3-------7------
Db|---3----------3-----3-------7--------

[SOLO]
Eb|---------------------------------5---5---5---5---6---6---6---6----
Bb|-6---6---6---6---5---5---5---5------------------------------------
Gb|---7---7---7---7---7---7---7---7---7---7---7---7---7---7---7---7--
(2x)

Marooned again, you were the one that threw me into life
Eb|---------------------------------5---5---5---5---6---6---6---6----
Bb|-6---6---6---6---5---5---5---5------------------------------------
Gb|---7---7---7---7---7---7---7---7---7---7---7---7---7---7---7---7--

Marooned again, you were the one that looked through the sadder light
Eb|---------------------------------5---5---5---5---6---6---6---6----
Bb|-6---6---6---6---5---5---5---5------------------------------------
Gb|---7---7---7---7---7---7---7---7---7---7---7---7---7---7---7---7--

I liked the way we slept on rooftops in the summertime
Eb|------------------------------------------------------------------
Bb|-8---8---8---8---6---6---6---6---8---8---8---8---6---6---6---6----
Gb|---7---7---7---7---7---7---7---7---7---7---7---7---7---7---7---7--

If we were all marooned again, I'd give my soul to save you
Eb|------------------------------------------------------------------
Bb|-5---5---5---5---6---6---6---6---5---5---5---5---6---6---6---6----
Gb|---7---7---7---7---7---7---7---7---7---7---7---7---7---7---7---7--


Marooned again, you were the one that put me in defense
Eb|---------------------------------5---5---5---5---6---6---6---6----
Bb|-6---6---6---6---5---5---5---5------------------------------------
Gb|---7---7---7---7---7---7---7---7---7---7---7---7---7---7---7---7--

Marooned again, you were the one that took my confidence
Eb|---------------------------------5---5---5---5---6---6---6---6----
Bb|-6---6---6---6---5---5---5---5------------------------------------
Gb|---7---7---7---7---7---7---7---7---7---7---7---7---7---7---7---7--

I liked the way we slept on rooftops in the summertime
Eb|------------------------------------------------------------------
Bb|-8---8---8---8---6---6---6---6---8---8---8---8---6---6---6---6----
Gb|---7---7---7---7---7---7---7---7---7---7---7---7---7---7---7---7--

If we were all marooned again, I'd give my soul to save your life
Eb|------------------------------------------------------------------
Bb|-5---5---5---5---6---6---6---6---5---5---5---5---6---6---6---6----
Gb|---7---7---7---7---7---7---7---7---7---7---7---7---7---7---7---7--

Gb|--7---9---10-----12---10--9---10-----
Db|--7---9---10-----12---10--9---10--8--
Ab|--5---7---8------10---8---7---8---8--
Db|----------------------------------8--

Gb|-------9-----12---10--9---10---------
Db|--10---9-----12---10--9---10---7--6--
Ab|--10---7-----10---8---7---8----7--6--
Db|--10---------------------------7--6--

Oooooooooohhhhhhhhh.....
Db|--10--12---10--12----10--9---10--9--
Ab|--8---10---8---10----8---7---8---7-- 

Oooooooooohhhhhhhhh.....
Db|--10--12---10--12----7---9---7---
Ab|--8---10---8---10----5---7---4---

(2x)

     Run....ning from Babylon
Db|---5------7----8----0---
Ab|---5------7----8----0---
Db|---5------7----8----0---

     Run   all  the way  to  Babylon
Db|---5-----10---8---7---8---0--
Ab|---5-----10---8---7---8---0--
Db|---5-----10---8---7---8---0--

     Meet you   there in Babylon
Db|---3----------7---------------
Ab|---3----------7---------------
Db|---3----------7---------------

Db|---10--9---10--9---10--9----10-10-10-10--
Ab|---8---7---8---7---8---7----8--8--8--8--- 

     Meet you   there in Babylon
Db|---3----------7---------------
Ab|---3----------7---------------
Db|---3----------7---------------

[SOLO]
Eb|---------------------------------5---5---5---5---6---6---6---6----
Bb|-6---6---6---6---5---5---5---5------------------------------------
Gb|---7---7---7---7---7---7---7---7---7---7---7---7---7---7---7---7--
(2x)





Calificar esta versión:
Aviso: Este fichero es trabajo propio de su transcriptor y representa su interpretación personal de la canción. El material contenido en esta página es para exclusivo uso privado, por lo que se prohibe su reproducción o retransmisión, así como su uso para fines comerciales.