Tortura, Saratoga (acordes)

Autor: Anónimo | 35554 visualizaciones

abmdg
Por beto sanchez de tijuana bc mexico

contactenme e-mail: laultimacena@hotmail.com

pidanme tabs


             Tortura [Saratoga]

intro

1-------7--10--7----13up14----------------------
2---10------------------------------------------
3-----------------------------------------------
4-----------------------------------------------
5-----------------------------------------------
6-----------------------------------------------


1-------7--10--7----12up13--12--10--------------
2---10------------------------------------------
3-----------------------------------------------
4-----------------------------------------------
5-----------------------------------------------
6-----------------------------------------------

se repite 2 veces...

         D                          G                
lo mas agrio de esta celda, no es tener que soportar, 
 
      D                         G
ver bailando al otro lado, la  maldita libertad,

 A                                     Bm
lo mas cruel de mi condena, no es que tenga que sufrir,

         G                    A             D
lo que a mi me quema es que nunca llega el fin...



1--7---5---3-------------------------------
2--7---5---3-------------------------------
3--7---5---0-------------------------------
4------------------------------------------  esto es como un pequeño adorno
5------------------------------------------
6------------------------------------------


         D                              G
lo mas crudo de esta celda, no es que tenga que pisar,

         D                     G      
sobre jeringuillas rotas, destinadas a matar,

A                                      Bm
lo mas cruel de mi condena, no es que tenga que morir,

         G            A                 D
lo que a mi mata es tener que estar sin ti...





estribillo

        G            D
hoo tortura, hoo tortura,

        G         A                 D
hoo tortura, es tener que estar sin ti,

        G            D
hoo tortura, hoo tortura,

        G         A                 D      
hoo tortura, es tener que estar sin ti...


        D                          G
lo mas frio de esta celda, no es tener que soportar,
 
          D                          G
que los huesos se entumezcan, y el dolor me haga gritar,

 A                              Bm
lo mas cruel de mi condena, es tener que dijerir,

 G                     A          D
estar para siempre condenado a vivir... 


estribillo

        G            D
hoo tortura, hoo tortura,

        G         A         D
hoo tortura, condenado a vivir,

        G            D
hoo tortura, hoo tortura,

        G         A         D
hoo tortura, condenado a vivir...


solo

1-------7--10--7----13up14----------------------
2---10------------------------------------------
3-----------------------------------------------
4-----------------------------------------------
5-----------------------------------------------
6-----------------------------------------------


1-------7--10--7----12up13--12--10--------------
2---10------------------------------------------
3-----------------------------------------------
4-----------------------------------------------
5-----------------------------------------------
6-----------------------------------------------



1-------7--10--7----13up14----------------------
2---10------------------------------------------
3-----------------------------------------------
4-----------------------------------------------
5-----------------------------------------------
6-----------------------------------------------


1-------7--10--7----12up13--12------------------
2---10------------------------------------------
3-----------------------------------------------
4-----------------------------------------------
5-----------------------------------------------
6-----------------------------------------------

1--12------------------------10-9-10------------
2-----15-12-8-------------10---------10---------
3--------------11-9-11-12-----------------------
4-----------------------------------------------
5-----------------------------------------------
6-----------------------------------------------

 les debo esta parte del solo es ualquier miseria...


        G            D
hoo tortura, hoo tortura,

        G        A          D
hoo tortura, condenado a vivir,

        G            D
hoo tortura, hoo tortura,

        G        A          D
hoo tortura, condenado a vivir...




1-------7--10--7----13up14----------------------
2---10------------------------------------------
3-----------------------------------------------
4-----------------------------------------------
5-----------------------------------------------
6-----------------------------------------------


1-------7--10--7----12up13--12--10--------------
2---10------------------------------------------
3-----------------------------------------------
4-----------------------------------------------
5-----------------------------------------------
6-----------------------------------------------

esta cancion se la dedico a una persona que quise y quiero mucho 
pero por alguna causa no me supo valorar como persona
aun te sigo amando ERIkA...

Salud,amor,dinero y heavy metal!!!

Y sigan sus sueños por que todos morimos jovenes [Chris Cole]...
Calificar esta versión:
Aviso: Este fichero es trabajo propio de su transcriptor y representa su interpretación personal de la canción. El material contenido en esta página es para exclusivo uso privado, por lo que se prohibe su reproducción o retransmisión, así como su uso para fines comerciales.