Rojo Fuego, Saratoga (tablatura)

Autor: Anónimo | 20395 visualizaciones

Weno sta es una gran cancion d saratoga spro k les guste
esta se la dedico a mi futuro grupo Viktor, Alice y Christian
MeTaL WaY Is ThE GoOd WaY!!!

Intro: F5 - D#5 - C#5 - C5 - A#5

Riff 1

E||------------------------|------------------------|--------------------|
B||------------------------|------------------------|--------------------|
G||------------------------|------------------------|--------------------|
D||------------------------|-------------8---6---4--|--------------------|
A||--6---8---9------8---9--|------8---9-------------|--8-6-4--6---8---9--|
E||-------------7----------|--4---------------------|--------------------|

----------------------||
----------------------||
----------------------||
--9---8---4--6--------||
----------------------||
----------------------||

Riff2

E||------------------------|--------------------|------------------------|
B||------------------------|--------------------|------------------------|
G||------------------------|--------------------|------------------------|
D||------------------------|-----------8-6---4--|------------------------|
A||--6---8---9------8---9--|------8-9-----------|--8---6---4--6---8---9--|
E||-------------7----------|--4-----------------|------------------------|

-----------------------||
-----------------------||
-----------------------||
--11---9---8--6--------||
-----------------------||
-----------------------||

Riff1, Riff2

Verso 1

C#5                 F#5       B5         C#5
Tu sonrisa no logra ocultar un instinto voraz
C#5                      F#5         B5           C#5
Siempre frágil hacia el exterior, eso es solo un disfraz

Puente 1

G#5(P.M)
Un momento de excitación
A#5(P.M)                  B5
La transforma en la revolución

Estribillo

Riff1
Labios color, rojo fuego, esto de aquí es para ti
Riff2
Siéntelo así, rojo fuego, quémate y muere por mí

Verso 2

C#5                 F#5          B5         C#5
Cuando el viento limita su voz, puedes enloquecer
C#5                F#5           B5           C#5
Es inútil no intentes huir, no, ella no va a perder

Puente 2

G#5(P.M)
Insaciable, te puede matar
A#5(P.M)            B5
Ojos negros ¡Mirada infernal!

Estribillo

Riff1
Labios color, rojo fuego, esto de aquí es para ti
Riff2
Siéntelo así, rojo fuego, quémate y muere por mí

D#5                        C#5
No te haré más preguntas, de lo que siento en mi piel
F#5      F5-D#5
Al despertar

Inicio al solo

E||------------------------|------------------------|
B||------------------------|------------------------|
G||------------------------|------------------------|
D||---------------6--------|------------------------|
A||--6---8---9-------9--8--|--9---8---6----5--6--8--|
E||------------------------|------------------------|

---------------------------|-----------------------|----------------------|
---------------------------|-----------------------|----------------------|
---------------------------|-----------------------|----------------------|
---------------------------|-----------------------|-------------6--------|
--6---8---9----11--13--14--|--13-11---9----8--6----|--6---8---9-----9--8--|
---------------------------|-----------------------|----------------------|

------------------------|--------------------------|---------------------|
------------------------|--------------------------|---------------------|
------------------------|--------------------------|---------------------|
------------------------|--13---11---9----8--6--4--|---------------------|
--9---8---6----5--6--8--|--------------------------|--11-9---8--6--4--2--|
------------------------|--------------------------|---------------------|

-------------------||
-------------------||
-------------------||
--3----------------||
--1----------------||
-------------------||

Base solo: A#5 - G#5 x2 A#5

Verso 3

C#5                F#5         B5            C#5
Viuda negra tu esclavo seré, pongo todo a tus pies
C#5                F#5               B5           C#5
Entre brumas te he visto bailar ¡no! nunca te olvidare

Puente 3

G#5(P.M)
Sangre o rosas te puedo ofrecer
A#5(P.M)            B5
Tú eliges, ¡Como lo ves!

Estribillo

Riff1
Labios color, rojo fuego, esto de aquí es para ti
Riff2
Siéntelo así, rojo fuego, quémate y muere por mí

Estribillo (sube un tono)

F5      C#5    A#5        F5      C#5       A#5
Labios color, rojo fuego, esto de aquí es para ti
F5      C#5    A#5         F5       D#5     A#5
Siéntelo así, rojo fuego, quémate y muere por mí

Estribillo

Riff1
Labios color, rojo fuego, esto de aquí es para ti
Riff2
Siéntelo así, rojo fuego, quémate y muere por mí
Calificar esta versión:
Aviso: Este fichero es trabajo propio de su transcriptor y representa su interpretación personal de la canción. El material contenido en esta página es para exclusivo uso privado, por lo que se prohibe su reproducción o retransmisión, así como su uso para fines comerciales.