Manos Unidas, Saratoga (acordes)

Autor: Anónimo | 28549 visualizaciones

aambbmcdeemfsosmg
Em          D   
  Azul un mar azul
         G          Em       C
  Tan intenso como esa luz fugaz
               D
  Que hay en tu cara 


Em          D
  No hay nada mejor 
         G            Em         C
  Que sentir tu aire fresco resbalar
           D
  Por mis heridas 



B         Em
  Sueño con un final
D                   G
  Me hundo en la oscuridad
     Am
Y le pido a Dios
               B
Verte una vez más 



Em            D
  Sin trampa ni cartón
           G              Em               C
  Como el gesto de aquel niño que un día fui
           D
  Y sigo siendo 



Em           D
  El tiempo confirmó
          G             Em           C
  Que mi vida sólo importa si estás tú
              D
  Siempre conmigo 


B           Em
  Horas de soledad
D            G
  Generan esta ansiedad
           Am
  Como el girasol
                 B
  Muere si no estás 


G             D
  Las manos unidas
G              D
  Sentir tu calor 

Em
  Juntos para caminar
C
  Juntos para soportar
Am
  Juntos para comenzar
D
  Mil aventuras

Em
  Vivos para compartir
C
  Vivos para discutir
Am
  Vivos para construir
D
  Locos por vivir
 

SOLO

>---------------------------------------12-14-15-17/19-17---14-------]
>------8-7------------------------------12---------------------15----]
>--7/9------7--------------------7/9----12------------------------14-]
>-------------7-7/9----10-9-7----------------------------------------]
>-----------------------------10-------------------------------------]
>--------------------------------------------------------------------]



>------------------------------------12----12-14-15-17-19---17-15-14-]
>------8-7------10/12----13-12-------------12------------------------]
>--7/9------7------------------14-12---------------------------------]
>-------------7------------------------------------------------------]
>--------------------------------------------------------------------]
>--------------------------------------------------------------------]


B           Em   
  Solo una cosa más
D              G  
  Te quiero manifestar
          Am
  Que gracias a tí
                  B
  Pude ser quien soy



A             E
  Las manos unidas
A              E
  Sentir tu calor 

F#m
  Juntos para caminar
D
  Juntos para soportar
Bm
  Juntos para comenzar
E
  Mil aventuras

F#m
  Vivos para compartir
D
  Vivos para discutir
Bm      
  Vivos para construir
E
  Locos por vivir
  Locos por vivir
  Locos por vivir
Calificar esta versión:
Aviso: Este fichero es trabajo propio de su transcriptor y representa su interpretación personal de la canción. El material contenido en esta página es para exclusivo uso privado, por lo que se prohibe su reproducción o retransmisión, así como su uso para fines comerciales.