A Morir, Saratoga (tablatura)

Autor: Anónimo | 35370 visualizaciones

Esta tab va dedicada al Heavy Metal y a todos los que lo seguimos!

Ahí VA

Afinación: D# o Eb

Intro [00:00]
eb|---------------------------------------------|
Bb|---------------------------------------------|
Gb|---------------9-10-9-7-9-10-9-9----------9—-|
Db|---------------9-10-9-7-9-10-9-9----------9--|
Ab|-----------7---7--8-7-5-7--8-7-7----------7--|
Eb|--5-7-9-10---5-------------------0000000000--|

PM                                  ..........


Verso 1 [00:18]
eb|------------------------------------------------|
Bb|------------------------------------------------|
Gb|-----------9—--------9----------10--------------|
Db|-----------9---------9----------10--------------|
Ab|-----------777777777777777777777888888888888----|
Eb|--0000000000------------------------------------|

PM  ...........................................

Interludio [00:36]
eb|---------------------------------|
Bb|---------------------------------|
Gb|-----------------10---9---5---7--|
Db|-----------------10---9---5---7--|
Ab|------------------8---7---3---5--|
Eb|--555-5-7-8--555-----------------|

[00:40]
eb|----------------------------------|
Bb|----------------------------------|
Gb|-----------------12---10---7---9--|
Db|-----------------12---10---7---9--|
Ab|-----------------10----8---5---7--|
Eb|--555-5-7-8--555------------------|



Puente [00:44]       [00:53]
                    2x
eb|------------------|------------------------|
Bb|------------------|------------------------|
Gb|----------6------*|-----------------------*|
Db|--9---5---6---5---|--4---------------------|
Ab|--9---5---4---5--*|--4--------------------*|
Eb|--7---3-------3---|--2---2-/-13---13-/-2---|

Intro [00:57]
eb|---------------------------------------------|
Bb|---------------------------------------------|
Gb|---------------9-10-9-7-9-10-9-9----------9—-|
Db|---------------9-10-9-7-9-10-9-9----------9--|
Ab|-----------7---7--8-7-5-7--8-7-7----------7--|
Eb|--5-7-9-10---5-------------------0000000000--|

PM                                  ..........

Verso 1 [01:16]
eb|------------------------------------------------|
Bb|------------------------------------------------|
Gb|-----------9—--------9----------10--------------|
Db|-----------9---------9----------10--------------|
Ab|-----------777777777777777777777888888888888----|
Eb|--0000000000------------------------------------|

PM  ...........................................

Interludio [01:33]
eb|---------------------------------|
Bb|---------------------------------|
Gb|-----------------10---9---5---7--|
Db|-----------------10---9---5---7--|
Ab|------------------8---7---3---5--|
Eb|--555-5-7-8--555-----------------|

[01:37]
eb|----------------------------------|
Bb|----------------------------------|
Gb|-----------------12---10---7---9--|
Db|-----------------12---10---7---9--|
Ab|-----------------10----8---5---7--|
Eb|--555-5-7-8--555------------------|

Puente [01:41]
                    2x
eb|------------------|------------------------|
Bb|------------------|------------------------|
Gb|----------6------*|-----------------------*|
Db|--9---5---6---5---|--4---------------------|
Ab|--9---5---4---5--*|--4--------------------*|
Eb|--7---3-------3---|--2---2-/-13---13-/-2---|

Estribillo [01:51]               [02:08]
Parte 1                      3x
eb|----------------------------|-------------|
Bb|----------------------------|-------------|
Gb|--9------7-------5---------*|--2---7---9--|
Db|--9------7-------5----------|--2---7---9--|
Ab|--777777-5555555-33333333--*|--0---5---7--|
Eb|----------------------------|-------------|

Parte 2 [02:12]        [02:26]
                    3x
eb|------------------|-------------|
Bb|------------------|-------------|
Gb|--9---7-------5--*|--2---7---9--|
Db|--9---7-------5---|--2---7---9--|
Ab|--7---5-------3--*|--0---5---7--|
Eb|------------------|-------------|


Solo 1 [02:30]
              ~~         ~~            ~~
eb|--------12-14---12-14-15---14-15-17-19---|
Bb|12-15------------------------------------|
Gb|-----------------------------------------|
Db|-----------------------------------------|
Ab|-----------------------------------------|
Eb|-----------------------------------------|

eb|-19-17-15-14-15------------|
Bb|-----------------17-15-17--|
Gb|---------------------------|
Db|---------------------------|
Ab|---------------------------|
Eb|---------------------------|



  [02:35]
eb|---------------------------------------|
Bb|---------------------------------------|
Gb|--12-14-12-----------------------------|
Db|-----------12---10-12-10---------------|
Ab|-------------------------10---8-10-8---|
Eb|-------------------------------------8-|

   [02:39]
eb|---------------------------------------------|
Bb|---------------------------------------------|
Gb|---12-11-9-11-9----9-------------------------|
Db|----------------12---12-11-12-11-9---------7-|
Ab|------------------------------------7-9-10---|
Eb|---------------------------------------------|



  [02:44]                               ~~
eb|--15-14-12---17-15-14---19-17-16—20-21AH----|
Bb|--------------------------------------------|
Gb|--------------------------------------------|
Db|--------------------------------------------|
Ab|--------------------------------------------|
Eb|--------------------------------------------|

Ritmo del Solo 1
El del estribillo

Estribillo [02:48]               [03:01]
Parte 1                      3x
eb|----------------------------|-------------|
Bb|----------------------------|-------------|
Gb|--9------7-------5---------*|--2---7---9--|
Db|--9------7-------5----------|--2---7---9--|
Ab|--777777-5555555-33333333--*|--0---5---7--|
Eb|----------------------------|-------------|

Parte 2 [02:12]        [02:26]
                    3x
eb|------------------|-------------|
Bb|------------------|-------------|
Gb|--9---7-------5--*|--2---7---9--|
Db|--9---7-------5---|--2---7---9--|
Ab|--7---5-------3--*|--0---5---7--|
Eb|------------------|-------------|




Solo 2 [03:06]      [03:09]

Guitarra 1
eb|--------7-6------|--------7-6-9-7-6-----|
Bb|--5-7-9-----7-5--|--5-7-9------------9--|
Gb|-----------------|----------------------|
Db|-----------------|----------------------|
Ab|-----------------|----------------------|
Eb|-----------------|----------------------|



  [03:14]          [03:17]

eb|--------7-6-----|--7-6-----7-6------|
Bb|--5-7-9-----7-5-|------7-5-----9-7--|
Gb|----------------|-------------------|
Db|----------------|-------------------|
Ab|----------------|-------------------|
Eb|----------------|-------------------|


Guitarra 2
eb|-----------------|----------------------|
Bb|-----------------|----------------------|
Gb|--------4-3------|--------3-4-6-4-3-----|
Db|--2-4-6-----4-2--|--2-4-6-----------6---|
Ab|-----------------|----------------------|
Eb|-----------------|----------------------|


  [03:14]          [03:17]

eb|----------------|-------------------|
Bb|----------------|-------------------|
Gb|--------4-3-----|--4-3-----4-3------|
Db|--2-4-6-----4-2-|------4-2-----4-6--|
Ab|----------------|-------------------|
Eb|----------------|-------------------|





Se toca la intro 4 veces y luego vienen estas 2
notas que se repiten 2 veces
Riff 1

eb|--12~~~~~~~~~~---------15~~~~~~~~~~---------|
Bb|--------------------------------------------|
Gb|--------------------------------------------|
Db|--------------------------------------------|
Ab|--------------------------------------------|
Eb|--------------------------------------------|

Outro
eb|----------------------------------------|
Bb|----------------------------------------|
Gb|----------------------------------------|
Db|------2-2--------2-2-------2-2---2-2-2--|
Ab|------2-2--------2-2-------2-2---2-2-2--|
Eb|--3-2-0-0----3-2-0-0---3-2-0-0---0-0-0--|


Símbolos
~ = Vibrato
/ = Slide
AH = Artificial Harmonic
PM . = Palm Muting

*
- = Repetir las veces que ponga arriba o si no pone
*    nada repetir 2


Estructura de la canción

Intro      4x
Verso 1    4x
Interludio 1x
Puente     1x
Intro      4x
Verso 1    4x
Interludio 1x
Puente     1x
Estribillo 1x
Solo 1 (Ritmo Estribillo parte 1)
Estribillo 1x
Solo 2 (Ritmo estribillo parte 1)
Estribillo 1x
Intro (Riff 1 de fondo) 4x
Outro      1x
Calificar esta versión:
Aviso: Este fichero es trabajo propio de su transcriptor y representa su interpretación personal de la canción. El material contenido en esta página es para exclusivo uso privado, por lo que se prohibe su reproducción o retransmisión, así como su uso para fines comerciales.