You're Not Alone, Saosin (tablatura)

Autor: CRPG | 24218 visualizaciones

YOU'RE NOT ALONE - SAOSIN
GUITAR TAB
By: ***CRPG***

RIFF

E|---------------------------------------------------------------------------------|
B|---------------------------------------------------------------------------------|
G|-10-10-10-9-9-9-5-5-5-5-5-5-5-5-5---10-10-10-9-9-9-12-12-12-14-12-12-14-12-14-12-| x2
D|----------------------------------7----------------------------------------------|
A|---------------------------------------------------------------------------------|
E|---------------------------------------------------------------------------------|

E|---------------------------------------------------------------------------------|
B|---------------------------------------------------------------------------------|
G|-10-10-10-9-9-9-5-5-5-5-5-5-5-5-5---10-10-10-9-9-9-12-12-12-14-14-14-14-14-14-14-| x3
D|----------------------------------7----------------------------------------------|
A|---------------------------------------------------------------------------------|
E|---------------------------------------------------------------------------------|

PRE-CHORUS

E|-----------------------------------------------------------------------------|
B|-----------------------------------------------------------------------------|
G|-----------------------------------------------------------------------------|
D|-7-7-7-7-7-7-7-7-7-7-7-7-7-7-7--10-10-10-10-10-10-10-10-10-10-10-10-10-10-10-|
A|-7-7-7-7-7-7-7-7-7-7-7-7-7-7-7--8--8--8--8--8--8--8--8--8--8--8--8--8--8--8--|
E|-5-5-5-5-5-5-5-5-5-5-5-5-5-5-5--8--8--8--8--8--8--8--8--8--8--8--8--8--8--8--|

CHORUS

E|--------------------------------------------|    E|-------------------------------|
B|--------------------------------------------|    B|-------------------------------|
G|--------------------------------------------| x2 G|-------------------------------|
D|-7-7-7-7-7-7------------------------5-5-5-5-|    D|-5-5-5-5-5-5-5-5-5-5-5-5-5-5-5-|
A|-5-5-5-5-5-5--9-9-9-9--3-3-3-3-3-3--3-3-3-3-|    A|-3-3-3-3-3-3-3-3-3-3-3-3-3-3-3-|
E|--------------7-7-7-7--1-1-1-1-1-1----------|	   E|-------------------------------|

RIFF

E|---------------------------------------------------------------------------------|
B|---------------------------------------------------------------------------------|
G|-10-10-10-9-9-9-5-5-5-5-5-5-5-5-5---10-10-10-9-9-9-12-12-12-14-14-14-14-14-14-14-| x3
D|----------------------------------7----------------------------------------------|
A|---------------------------------------------------------------------------------|
E|---------------------------------------------------------------------------------|

PRE-CHORUS

E|-----------------------------------------------------------------------------|
B|-----------------------------------------------------------------------------|
G|-----------------------------------------------------------------------------|
D|-7-7-7-7-7-7-7-7-7-7-7-7-7-7-7--10-10-10-10-10-10-10-10-10-10-10-10-10-10-10-|
A|-7-7-7-7-7-7-7-7-7-7-7-7-7-7-7--8--8--8--8--8--8--8--8--8--8--8--8--8--8--8--|
E|-5-5-5-5-5-5-5-5-5-5-5-5-5-5-5--8--8--8--8--8--8--8--8--8--8--8--8--8--8--8--|

CHORUS

E|--------------------------------------------|    E|-------------------------------|
B|--------------------------------------------|    B|-------------------------------|
G|--------------------------------------------| x2 G|-------------------------------|
D|-7-7-7-7-7-7------------------------5-5-5-5-|    D|-5-5-5-5-5-5-5-5-5-5-5-5-5-5-5-|
A|-5-5-5-5-5-5--9-9-9-9--3-3-3-3-3-3--3-3-3-3-|    A|-3-3-3-3-3-3-3-3-3-3-3-3-3-3-3-|
E|--------------7-7-7-7--1-1-1-1-1-1----------|	   E|-------------------------------|

SOLO

E|--------------------------------------------------------| E|--------------------------------|
B|--------------------------------------------------------| B|--------------------------------|
G|-10----12-10-9-12-14-12-10-9-10-12-10-12-10-12-10-12-10-| G|-10----12-10-9-7-14-12-14-15-16-|
D|----10--------------------------------------------------| D|--------------------------------|
A|--------------------------------------------------------| A|--------------------------------| 
E|--------------------------------------------------------| E|--------------------------------|

VOCAL/PRE-CHORUS

E|-----------------------------------------------------------------------------|
B|-----------------------------------------------------------------------------|
G|-----------------------------------------------------------------------------|
D|-7-7-7-7-7-7-7-7-7-7-7-7-7-7-7--10-10-10-10-10-10-10-10-10-10-10-10-10-10-10-|
A|-7-7-7-7-7-7-7-7-7-7-7-7-7-7-7--8--8--8--8--8--8--8--8--8--8--8--8--8--8--8--|
E|-5-5-5-5-5-5-5-5-5-5-5-5-5-5-5--8--8--8--8--8--8--8--8--8--8--8--8--8--8--8--|

CHORUS

E|--------------------------------------------|    E|-------------------------------|
B|--------------------------------------------|    B|-------------------------------|
G|--------------------------------------------| x2 G|-------------------------------|
D|-7-7-7-7-7-7------------------------5-5-5-5-|    D|-5-5-5-5-5-5-5-5-5-5-5-5-5-5-5-|
A|-5-5-5-5-5-5--9-9-9-9--3-3-3-3-3-3--3-3-3-3-|    A|-3-3-3-3-3-3-3-3-3-3-3-3-3-3-3-|
E|--------------7-7-7-7--1-1-1-1-1-1----------|	   E|-------------------------------|

RIFF

E|---------------------------------------------------------------------------------|
B|---------------------------------------------------------------------------------|
G|-10-10-10-9-9-9-5-5-5-5-5-5-5-5-5---10-10-10-9-9-9-12-12-12-14-12-12-14-12-14-12-| x2
D|----------------------------------7----------------------------------------------|
A|---------------------------------------------------------------------------------|
E|---------------------------------------------------------------------------------|

E|---------------------------------------------------------------------------------|
B|---------------------------------------------------------------------------------|
G|-10-------9-----5-------------------10-------9-----12-------14-------------------|
D|----------------------------------7----------------------------------------------|
A|---------------------------------------------------------------------------------|
E|---------------------------------------------------------------------------------|

END 3:58 min

By: ***CRPG*** (César Peralta)
E-mail: cesarperaltadj@hotmail.com

Comentarios del colaborador: Hecha a Mano!!! ;)

Calificar esta versión:
Aviso: Este fichero es trabajo propio de su transcriptor y representa su interpretación personal de la canción. El material contenido en esta página es para exclusivo uso privado, por lo que se prohibe su reproducción o retransmisión, así como su uso para fines comerciales.