Collapse, Saosin (tablatura)

Autor: TORRE_GUITAR | 33475 visualizaciones



^ significa el vibrato y armónico  
* significa el stacatto  
s está resbalando  
va  
  
Intro  
Verso1  
El coro  
Verso2  
El coro  
El puente  
El coro  
el fin
-------------------------------------------------------------------------------
			     Collapse - saosin
-------------------------------------------------------------------------------
Intro
Lleve la guitarra  
Una sección  
d--------------------------------------------------|
A--------------------------------------------------|
F--------------------------------------------------|
C-------9------------------9------------------9----| X2
G-7--9----10--9--10--7--10---10--9--10--7--10---10-|
C--------------------------------------------------|
guitarra de ritmo  
 toqúele usando al mudo de la palma  
d----------|------|
A----------|------|
F----------|------|
C-2--2--2--|-2--2-|
G-2--2--2--|-2--2-|
C-2--2--2--|-2--2-|

Guitarra que lleva
-------------------------------------------------------------------------------------|
-------------------------------------------------------------------------------------|
-------------------------------------------------------------------------------------|
------------9-----------------------------------------7------------------------12--9-|
-7--9--10-----10--7--9--10---7--9--7---7--9--5-------7--9-----10----------9--10------|
-------------------------------------------------------------------------------------|
guitarra de ritmo  
 Resbale de 2 a 12 
d--------------------|
A--------------------|
F--------------------|
C-2s12--10---777--12-|
G-2s12--10---777--12-|
C-2s12--10---777--12-|

Verso

Guitarra q lleva
----|--------------------------|--------------------------|
----|-------------------12--10-|-------------------12--10-|
-11-|--------11-----9----------|--------11-----9----------|
----|------------9-------------|------------9-------------|
----|-9*-10--------------------|-9*-10--------------------|
----|--------------------------|--------------------------|

---------------------------------------------------------------------------|
---------------------------------------------------------------------------|
----------------9h11---------9h11---------9h11---------9h11----------------|
--------12----------------------------------------------------------12-----|
-9--10------10--------9*-10-------9*-10--------9*-10--------9--10------10--|
---------------------------------------------------------------------------|

----|-------------------------|-------------------------|
----|------------------12--10-|------------------12--10-| entonces
-12-|--------12-----9---------|--------12-----9---------| 2 veces
----|------------9------------|------------9------------|
----|-9*-10-------------------|-9*-10-------------------|
----|-------------------------|-------------------------|




guitarra de ritmo  
El mudo de la palma durante el verso  
----------------------------------------|
----------------------------------------|
----------------------------------------| X 2
-22222222--22222222--00000000--00000000-|
-22222222--22222222--00000000--00000000-|
-22222222--22222222--00000000--00000000-|

------------------------------------|
------------------------------------|
------------------------------------| X 2
-1010101010101010--1212121212121212 - | y entonces lleva las obras de la guitarra  
-1010101010101010--1212121212121212 - | una sección pero la guitarra de ritmo no toca cualq 
-1010101010101010--1212121212121212 - | cuando viene a cantar en coro sólo diapositiva como la sección del intro  

CORO

----------------|-------------------------|-------------------------|
-19--20--19-----|--19--20---19--20--19----|--19--20---19--20--19----|
-------------19-|-----------------------19|-----------------------19|
----------------|-------------------------|-------------------------|
----------------|-------------------------|-------------------------|
----------------|-------------------------|-------------------------|

----------------------------------19-----|----------------|------------------------|
-19--20---19--20--19------19--20------20-|-19--20--19-----|-19--20---19--20--19----|
-----------------------19----------------|-------------19-|---------------------19-|
-----------------------------------------|----------------|------------------------|
-----------------------------------------|----------------|------------------------|
-----------------------------------------|----------------|------------------------|


------------------------------|
-19h20---19h20---19h20--19h20-|
------------------------------|
------------------------------|
------------------------------|
------------------------------|

SECION B
---------------|
---------------|
---------------| sólo toque la sección de B para el primer coro  
--------12--10-|
-9--10---------|
---------------|

guitarra de ritmo  
Yo estoy dándole sólo los cordones)  
  
----------------------------|
----------------------------|
----------------------------|
-10--2--10--2s12--10--12--2-|
-10--2--10--2s12--10--12--2-|
-10--2--10--2s12--10--12--2-|

El puente    
Lleve la guitarra  

La sección C  
-----------------------------------------------|
-12-12-12-12----12--10--12--10--12-10--7-8-7-8-|
-9--9--9--9-----9---9---9---9---9--9---7-7-7-7-|
-----------------------------------------------|
-----------------------------------------------|
-----------------------------------------------|

Continua
----------------------------------------------------------------------------|
----------------------------------------------------------------------------|
-----------7----------------------------------------------------------------|
--------------------------------------------------------------7-------------|
-7--9--10-----10--7--9--10---7--9--7---7--9--5------7--9--10-----10--9--7h9-|
----------------------------------------------------------------------------|
Toque Sección del C que sigue entonces dos veces por la sección de D  
  
La sección de D
|-------------------------------------------------|
|-------------------------------------------------|
|--------7--------------------7-------------------|
|-------------------------------------------------| X 2
|-9--10-----10--9--10--7--10-----10--9--10--7--10-|(toqúelo dos veces y entonces toque la secc E 
|-------------------------------------------------|

E sexxion
----------------------------------------------------------------|
-------------------------------------------------------------^7-|
-----------7----------------------------------------------------|
----------------------------------------------------------------|
-7--9--10-----10--7--9--10---7--9--7---7--9--5------7--9--10----|
----------------------------------------------------------------|

Guitarra ritmica
----------|
----------|
----------| X4(oqúele 4 veces pero el tiempo pasado, la obra de guitarra de ritmo sin el palma poner sordina a,
-2--10--7-| intro acaba escuche
-2--10--7-|
-2--10--7-|

El fin 
Guiatarra lleva
----------------|-------------------------|-------------------------|
-19--20--19-----|--19--20---19--20--19----|--19--20---19--20--19----|
----------------|-------------------------|-------------------------|
----------------|-------------------------|-------------------------|
----------------|-------------------------|-------------------------|
----------------|-------------------------|-------------------------|

----------------------------------19-----|
-19--20---19--20--19------19--20------20-|
-----------------------------------------|
-----------------------------------------|
-----------------------------------------|
-----------------------------------------|






Comentarios del colaborador: espero q entiendan lo qu e tratado de decir

Calificar esta versión:
Aviso: Este fichero es trabajo propio de su transcriptor y representa su interpretación personal de la canción. El material contenido en esta página es para exclusivo uso privado, por lo que se prohibe su reproducción o retransmisión, así como su uso para fines comerciales.