And I Love Her, Santo & Johnny (tablatura)

Autor: rasek | 19271 visualizaciones

(Intro)
e----------------------|
B----------------------|
G----------------------|
D----------------------|X4
A----------------------|
E----7--7/12--11-9-----|


(Verse and Chrous?)
e-------------11s9-9--12~-----|
B-------9-10------------------|
G--9s11-----------------------|
D-----------------------------|
A-----------------------------|
E-----------------------------|

e-------------11s9-9----------|
B-------9-10------------------|
G--9s11-----------------------|
D-----------------------------|
A-----------------------------|
E-----------------------------|

e-------------11s9-9--12~-----|
B-------9-10------------------|
G--9s11-----------------------|
D-----------------------------|
A-----------------------------|
E-----------------------------|

e--12s9-9---------------------|
B---------10-9-7-----------9--|
G-----------------5s7-5-7-----|
D-----------------------------|
A-----------------------------|
E-----------------------------|

(Wind Instrument...trumpet?)
e-------------------------------------|
B--9-9-9-12---12-9---12---12-9---12---|
G------------------9-----------9------|
D-------------------------------------|
A-------------------------------------|
E-------------------------------------|

e-------------------------------|
B--12-9---12---12-9p8p7--(9p8)--|
G-------9----9------------------|
D-------------------------------|
A-------------------------------|
E-------------------------------|

Comentarios del colaborador: http://www.ultimate-guitar.com/tabs/s/santo_and_johnny/and_i_love_her_tab.htm

Calificar esta versión:
Aviso: Este fichero es trabajo propio de su transcriptor y representa su interpretación personal de la canción. El material contenido en esta página es para exclusivo uso privado, por lo que se prohibe su reproducción o retransmisión, así como su uso para fines comerciales.