Pensando En Ti, Santa Rm (tablatura)

Autor: ptrpetter | 36256 visualizaciones

la canción original es de Kansas - Polvo en el viento


E:-----------------|-----------------|-----------------|-----------------|
B:-1---------1-----|-0---------0-----|-3---------3-----|-1---------1-----|
G:-------0-----0---|-------0-----0---|-------0-------0-|-------0-----0---|           
D:-----2-----------|-----2-----------|-----2-----------|-----2-----------|
A:-3---------------|-3---------------|-3---------------|-3---------------|
E:-----------------|-----------------|-----------------|-----------------|

                            
E:-----------------|-----------------|-----------------|-----------------|
B:-1---------1-----|-0---------0-----|-3---------3-----|-1---------1-----|
G:-------2-------2-|-------2-------2-|-------2-------2-|-------2-------2-|
D:-----2-----------|-----2-----------|-----2-----------|-----2-----------|           
A:-0---------------|-0---------------|-0---------------|-0---------------|
E:-----------------|-----------------|-----------------|-----------------|



E:-----------------|-----------------|-----------------|-----------------|
B:-3---------3-----|-1---------1-----|-0---------0-----|-3---------3-----|
G:-------0-------0-|-------0-------0-|-------0-------0-|-------0-------0-|
D:-----2-----------|-----2-----------|-----2-----------|-----2-----------|           
A:-3---------------|-3---------------|-3---------------|-3---------------|
E:-----------------|-----------------|-----------------|-----------------|

E:-----------------|-----------------|-----------------|-----------------|
B:-0---------0-----|-3---------3-----|-1---------1-----|-0---------0-----|
G:-------2-------2-|-------2-------2-|-------2-------2-|-------2-------2-|
D:-----2-----------|-----2-----------|-----2-----------|-----2-----------|           
A:-0---------------|-0---------------|-0---------------|-0---------------|
E:-----------------|-----------------|-----------------|-----------------|
Calificar esta versión:
Aviso: Este fichero es trabajo propio de su transcriptor y representa su interpretación personal de la canción. El material contenido en esta página es para exclusivo uso privado, por lo que se prohibe su reproducción o retransmisión, así como su uso para fines comerciales.