Send Me On My Way, Rusted Rood (tablatura)

Autor: Marco00762 | 27093 visualizaciones

Aquí puedes tomas como base el acorde de C (do) y solo mover el dedo meñike:

E|-------33------------------------------------3------------
B|--1-1-----33----------------------------------------------
G|---------------esto va 3 veces, y al final:---------------
D|----------------------------------------------------------
A|--3-3-----------------------------------------------------
E|----------------------------------------------------------

Aquí toma el acorde de Am (la menor) para unicamente mover el dedo meñike:

E|--------33----------------------------------3--------
B|--1-1------33----------------------------------------
G|-----------------------------------------------------
D|----------------esto va 3 veces y, al final----------
A|--0-0------------------------------------------------
E|-----------------------------------------------------
 y asi se sigue toda la canción )
Calificar esta versión:
Aviso: Este fichero es trabajo propio de su transcriptor y representa su interpretación personal de la canción. El material contenido en esta página es para exclusivo uso privado, por lo que se prohibe su reproducción o retransmisión, así como su uso para fines comerciales.