Over It, Rufio (tablatura)

Autor: nestor sotelo archila | 33743 visualizaciones



 esta cancion va la ra la chava que me robo el corazon con su forma de ser ba para ti estefani


GUITARRA 1  
-----------------  
 
Intro: [2x]  
e|---------------0~---------------0~---------------0~----------------0~----------|  
B|--------0----------------0----------------0------------------------0~----------|  
G|------4---4------------4---4------------4---4------------4----4----4~----------|  
D|----2-------2--------2-------2--------2-------2--------2----4------2~----------|  
A|--4----------------0----------------4----------------0----2--------2~----------|  
E|-------------------------------------------------------------------0~----------|  
 
Version 1: "I can't believe that you're wasting your time..." [2x]  
e|---------------0~---------------0~---------------0~----------------0~--------|  
B|--------0----------------0----------------0----------------0-----------------|  
G|------4---4------------4---4------------4---4------------4---4---------------|  
D|----2-------2--------2-------2--------2-------2--------4-------2-------------|  
A|--4----------------0----------------4----------------2-----------------------|  
E|-----------------------------------------------------------------------------|  
 
Version 1 Cont'd: "You heard my story but heard it all wrong..." [1x]  
e|---------------0~---------------0~-------0-0-------0-0------0--0-0--0-0---------|  
B|--------0----------------0---------------0-0-------0-0------0--0-0--0-0---------|  
G|------4---4------------4---4-----------4-4-4-----4-4-4----4-4--4-4--4-4---------|  
D|----2-------2--------2-------2---------2-2-2-----2-2-2----2-2--2-2--2-2---------|  
A|--4----------------0------------------4---------0--------2----------------------|  
E|--------------------------------------------------------------------------------|  
 
 
PreCoro: "Well it's just so..." [1x listen to the song for the strumming, sorry guys.]  
e|---0>>>>-----0>>>>---0--0-0-0-0--0--0-0-0-0--------0>>>>-----0>>>>---0--0-0-0---0--0-0-0---------------|  
B|---0>>>>-----0>>>>---0--0-0-0-0--0--0-0-0-0--------0>>>>-----0>>>>---0--0-0-0---0--0-0-0----0~---------|  
G|---4>>>>-----4>>>>---4--4-4-4-4--4--4-4-4-4--------4>>>>-----4>>>>---4--4-4-4---4--4-4-4----4~---------|  
D|---2>>>>-----2>>>>---2--2-2-2-2--2--2-2-2-2--------2>>>>-----2>>>>---2--2-2-2---4--4-4-4----2~---------|  
A|---4>>>>-----0>>>>---4--4-4-4-0--2--2-2-2-2--------4>>>>-----0>>>>---4--4-4-4---2--2-2-2----2~---------|  
E|-------------------------------------------------------------------------------------------------------|  
 
 
Coro: "I was over it before..." [playing the open (B) and (E) strings gives it (A) 
e|--0--0-0-0-0-0-0---0--0-0-0-0-0-0---0--0-0-0--0--0-0-0--0--0-0-0--0--0-0-0-0-  
B|--0--0-0-0-0-0-0---0--0-0-0-0-0-0---0--0-0-0--0--0-0-0--0--0-0-0--0--0-0-0-0-  
G|--9--9-9-9-9-9-9---4--4-4-4-4-4-4---4--4-4-4--4--4-4-4--4--4-4-4--4--4-4-4-4-  
D|--9--9-9-9-9-9-9---4--4-4-4-4-4-4---2--2-2-2--2--2-2-2--4--4-4-4--2--2-2-2-2-  
A|--7--7-7-7-7-7-7---2--2-2-2-2-2-2---4--4-4-4--0--0-0-0--2--2-2-2--2--2-2-2-2-  
E|-----------------------------------------------------------------------------  

    nice ringy angelic sound, so yeh, personal preferance]        
    ---0--0-0-0-0-0-0---0--0-0-0-0-0-0---0--0-0-0--0--0-0-0------|
    ---0--0-0-0-0-0-0---0--0-0-0-0-0-0---0--0-0-0--0--0-0-0------|
    ---9--9-9-9-9-9-9---4--4-4-4-4-4-4---6--6-6-6--4--4-4-4------|
    ---9--9-9-9-9-9-9---4--4-4-4-4-4-4---6--6-6-6--4--4-4-4--7~--|
    ---7--7-7-7-7-7-7---2--2-2-2-2-2-2---4--4-4-4--2--2-2-2--7~--|
    ---------------------------------------------------------5~--|
    
    
Version 2: "I can't believe that you're wasting my time..."  
e|--------------------------------------------------------------------------------------------|  
B|--------------------------------------------------------------------------------------------|  
G|---4-4--4-4-4-4-4-4-4-4-4-4-4-4-4-4-4-4-4-4---4-4--4-4-4-4-4-4-4-4-4-4-4-4-4-4-4-4-4-4------|  
D|---2-2--2-2-2-2-2-2-2-2-2-2-2-2-2-2-2-2-2-2---2-2--2-2-2-2-2-2-2-2-2-2-2-2-2-2-2-2-2-2------|  
A|---4-4--4-4-4-4-4-4-4-4-4-0-0-0-0-0-0-0-0-0---4-4--4-4-4-4-4-4-4-4-4-0-0-0-0-0-0-0-0-0------|  
E|--------------------------------------------------------------------------------------------|  
PM................................. PM.................................  
 
 
Version 2 Cont'd: "Clean out your..."  
e|-------------------------------------------------------------------------------------------------------|  
B|---------------------------------------------------------------------------2--2-2-2-2-2-2-2--2-2-2-2---|  
G|---4-4--4-4-4-4-4-4-4-4-4-4-4-4-4-4--4-4-4-4-4---4--4-4-4-4---4--4-4-4-4---2--2-2-2-2-2-2-2--2-2-2-2---|  
D|---2-2--2-2-2-2-2-2-2-2-2-2-2-2-2-2--2-2-2-2-2---2--2-2-2-2---2--2-2-2-2---2--2-2-2-2-2-2-2--2-2-2-2---|  
A|---4-4--4-4-4-4-4-4-4-4-4-0-0-0-0-0--0-0-0-0-0---4--4-4-4-4---0--0-0-0-0---0--0-0-0-0-0-0-0--0-0-0-0---|  
E|-------------------------------------------------------------------------------------------------------|  
PM......................... PM...........  
 
 
PreCoro: "Well it's just so..." [1x listen to the song for the strumming, sorry guys.]  
e|---0>>>>-----0>>>>---0--0-0-0-0--0--0-0-0-0--------0>>>>-----0>>>>---0--0-0-0---0--0-0-0---------------|  
B|---0>>>>-----0>>>>---0--0-0-0-0--0--0-0-0-0--------0>>>>-----0>>>>---0--0-0-0---0--0-0-0----0~---------|  
G|---4>>>>-----4>>>>---4--4-4-4-4--4--4-4-4-4--------4>>>>-----4>>>>---4--4-4-4---4--4-4-4----4~---------|  
D|---2>>>>-----2>>>>---2--2-2-2-2--2--2-2-2-2--------2>>>>-----2>>>>---2--2-2-2---4--4-4-4----2~---------|  
A|---4>>>>-----0>>>>---4--4-4-4-0--2--2-2-2-2--------4>>>>-----0>>>>---4--4-4-4---2--2-2-2----2~---------|  
E|-------------------------------------------------------------------------------------------------------|  
 
 
Coro 2: "I was over it before..."  
e|--0--0-0-0-0-0-0---0--0-0-0-0-0-0---0--0-0-0--0--0-0-0--0--0-0-0--0--0-0-0-0----|  
B|--0--0-0-0-0-0-0---0--0-0-0-0-0-0---0--0-0-0--0--0-0-0--0--0-0-0--0--0-0-0-0----|  
G|--9--9-9-9-9-9-9---4--4-4-4-4-4-4---4--4-4-4--4--4-4-4--4--4-4-4--4--4-4-4-4----|  
D|--9--9-9-9-9-9-9---4--4-4-4-4-4-4---2--2-2-2--2--2-2-2--4--4-4-4--2--2-2-2-2----|  
A|--7--7-7-7-7-7-7---2--2-2-2-2-2-2---4--4-4-4--0--0-0-0--2--2-2-2--2--2-2-2-2----|  
E|--------------------------------------------------------------------------------|  
 
 
Coro 2 Cont'd: "And I started out again..."  
e|--0--0-0-0-0-0-0---0--0-0-0-0-0-0---0--0-0-0--0--0-0-0----------------------------------|  
B|--0--0-0-0-0-0-0---0--0-0-0-0-0-0---0--0-0-0--0--0-0-0----------------------------------|  
G|--9--9-9-9-9-9-9---4--4-4-4-4-4-4---6--6-6-6--4--4-4-4----------------------------------|  
D|--9--9-9-9-9-9-9---4--4-4-4-4-4-4---6--6-6-6--4--4-4-4----7-7-7-7-7-7-7-7-7-7-7-7-7-7---|  
A|--7--7-7-7-7-7-7---2--2-2-2-2-2-2---4--4-4-4--2--2-2-2----7-7-7-7-7-7-7-7-7-7-7-7-7-7---|  
E|----------------------------------------------------------5-5-5-5-5-5-5-5-5-5-5-5-5-5---|  
PM...............  
 
 
Bridge: "And I can't believe anything, when our differences are the same..." [3x]  
e|---------------------------------------|  
B|---------------------------------------|  
G|---6--6-6-6-6-6-6--0--0-0-0--4--4-4----|  
D|---6--6-6-6-6-6-6--2--2-2-2--4--4-4----|  
A|---4--4-4-4-4-4-4--2--2-2-2--2--2-2----|  
E|---------------------------------------|  
 
 
Bridge Cont'd: "It's over..."  
e|-------------------------------|  
B|-------------------------------|  
G|---6--6-6-x---------------9~---|  
D|---6--6-6-x---9--9-9-x----9~---|  
A|---4--4-4-x---9--9-9-x----7~---|  
E|--------------7--7-7-x---------|  
 
 
Interludio: "And I can't believe anything..." [my interpretation anyhow...]  
e|-----------------------------------------------------------------------------------|  
B|---------------------------------2-------------------------------------------------|  
G|------4---------------------4------4-----------4-------------------4-----4--2------|  
D|----2---2---/6--4--2------2---2------2------2---2---/6--4--2-----2--2----------2/4-|  
A|--4---------------------0-----------------4--------------------2-------------------|  
E|-----------------------------------------------------------------------------------|  
 
 
Interludio Cont'd: "You're not listening anyway..."  
e|----------------------------------------------------------------------------|  
B|---------------------------------2------------------------------------------|  
G|------4---------------------4------4------------4-----------4---------------|  
D|----2---2---/6--4--2------2---2------2--------2---2-------2---2-------2~----|  
A|--4---------------------0-----------------0-----------2---------------2~----|  
E|----------------------------------------------------------------------0~----|  
 
 
Coro 3: "I was over it before..."  
e|--0--0-0-0-0-0-0---0--0-0-0-0-0-0---0--0-0-0--0--0-0-0--0--0-0-0--0--0-0-0-0----|  
B|--0--0-0-0-0-0-0---0--0-0-0-0-0-0---0--0-0-0--0--0-0-0--0--0-0-0--0--0-0-0-0----|  
G|--9--9-9-9-9-9-9---4--4-4-4-4-4-4---4--4-4-4--4--4-4-4--4--4-4-4--4--4-4-4-4----|  
D|--9--9-9-9-9-9-9---4--4-4-4-4-4-4---2--2-2-2--2--2-2-2--4--4-4-4--2--2-2-2-2----|  
A|--7--7-7-7-7-7-7---2--2-2-2-2-2-2---4--4-4-4--0--0-0-0--2--2-2-2--2--2-2-2-2----|  
E|--------------------------------------------------------------------------------|  
 
 
Coro 3 Cont'd: "And I started out again..."  
e|--0--0-0-0-0-0-0---0--0-0-0-0-0-0---0--0-0-0--0--0-0-0----------------------------|  
B|--0--0-0-0-0-0-0---0--0-0-0-0-0-0---0--0-0-0--0--0-0-0----------------------------|  
G|--9--9-9-9-9-9-9---4--4-4-4-4-4-4---6--6-6-6--4--4-4-4----------------------------|  
D|--9--9-9-9-9-9-9---4--4-4-4-4-4-4---6--6-6-6--4--4-4-4----7--7-7--7-7--9-9-9-9----|  
A|--7--7-7-7-7-7-7---2--2-2-2-2-2-2---4--4-4-4--2--2-2-2----7--7-7--7-7--9-9-9-9----|  
E|----------------------------------------------------------5--5-5--5-5--7-7-7-7----|  
PM.  
 
Coro 3 Cont'd: "I was over it before..."  
e|--0--0-0-0-0-0-0---0--0-0-0-0-0-0---0--0-0-0--0--0-0-0--0--0-0-0--0--0-0-0-0----|  
B|--0--0-0-0-0-0-0---0--0-0-0-0-0-0---0--0-0-0--0--0-0-0--0--0-0-0--0--0-0-0-0----|  
G|--9--9-9-9-9-9-9---4--4-4-4-4-4-4---4--4-4-4--4--4-4-4--4--4-4-4--4--4-4-4-4----|  
D|--9--9-9-9-9-9-9---4--4-4-4-4-4-4---2--2-2-2--2--2-2-2--4--4-4-4--2--2-2-2-2----|  
A|--7--7-7-7-7-7-7---2--2-2-2-2-2-2---4--4-4-4--0--0-0-0--2--2-2-2--2--2-2-2-2----|  
E|--------------------------------------------------------------------------------|  
 
 
Coro 3 End: "And I started out again..."  
e|--0--0-0-0-0-0-0---0--0-0-0-0-0-0---0--0-0-0--0--0-0-0---------|  
B|--0--0-0-0-0-0-0---0--0-0-0-0-0-0---0--0-0-0--0--0-0-0---------|  
G|--9--9-9-9-9-9-9---4--4-4-4-4-4-4---6--6-6-6--4--4-4-4---------|  
D|--9--9-9-9-9-9-9---4--4-4-4-4-4-4---6--6-6-6--4--4-4-4----7~---|  
A|--7--7-7-7-7-7-7---2--2-2-2-2-2-2---4--4-4-4--2--2-2-2----7~---|  
E|----------------------------------------------------------5~---|  
 
el fin de la cancion :  
e|--------------------|  
B|--------------------|  
G|---6-6-x-x-4--/9~---|  
D|---6-6-x-x-4--/9~---|  
A|---4-4-x-x-2--/7~---|  
E|--------------------|
 





Calificar esta versión:
Aviso: Este fichero es trabajo propio de su transcriptor y representa su interpretación personal de la canción. El material contenido en esta página es para exclusivo uso privado, por lo que se prohibe su reproducción o retransmisión, así como su uso para fines comerciales.