Amutuy Soledad, Rubén Patagonia (acordes)

Autor: Anónimo | 35957 visualizaciones

amcfg


AMUTUY SOLEDAD - Rubén Patagonia


Intro:

e |--0-3-5-8-7-8p7-5-3-5-3-5-3--------|-0-3-5-8-7-8p7-5-3-5-----------|
B|----------------------------5-3-5--|-------------------------------|
G|-----------------------------------|-------------------------------|


Am          F     G              Am
Hoy están festejando la conquista de ayer
Am          F        G          Am
con mi propia bandera me robaron la fe
Am          F     G           Am
los del remitonante y sus leyes después

Pisotearon mis credos y mi forma de ser
me impusieron cultura y este idioma también
lo que no me impusieron fue el color de la piel

Am F G       C         F            G         Am
Amutuy, soledad que mi hermano me arrincona sin piedad
Am  F          G              Am          F
vamonos que el alambre y el fiscal pueden mas
    G          Am
Amutuy sin mendigar

e|--0-3-5-8-7-8p7-5-3-5-3-5-3--------|-0-3-5-8-7-8p7-5-3-5-----------|
B|----------------------------5-3-5--|-------------------------------|
G|-----------------------------------|-------------------------------|

Hay están festejando los del sable y la cruz
como me despojaron sin ninguna razón
sometiendo a mi raza en el nombre de dios

Con que ley me juzgaron por culpable de qué
de ser libre en mi tierra o ser indio tal vez
¿qué conquista festejan que no puedo entender?!

Amutuy, soledad que mi hermano me arrincona sin piedad
vamonos que el alambre y el fiscal pueden mas
   G       Am  Am     F G      Am      Am   F      G        Am        
Amutuy sin mendigar,    Amutuy     sin mendigar,    Amutuy, Amutuy, Amutuy

e|--0-3-5-8-7-8p7-5-3-5-3-5-3--------|-0-3-5-8-7-8p7-5-3-5--0----|
B|----------------------------5-3-5--|----------------------1----|
G|-----------------------------------|----------------------2----|
D|-----------------------------------|----------------------2----|
A|-----------------------------------|----------------------0----|
E|-----------------------------------|----------------------0----|




Transcripción de niko: la_kovacha@yahoo.com.ar





Calificar esta versión:
Aviso: Este fichero es trabajo propio de su transcriptor y representa su interpretación personal de la canción. El material contenido en esta página es para exclusivo uso privado, por lo que se prohibe su reproducción o retransmisión, así como su uso para fines comerciales.