Y Dale, Rosendo (tablatura)

Autor: viejoroker | 21852 visualizaciones

Nota: Os he enviado otra de la misma canción, pero había un error: el SI# que aparece en ella, realmente es SI. Esta es la buena. Mis disculpas

? Y DALE!


Del primer disco de Rosendo en solitario, después de Leño.


  	INTRO
---------------------------------------------
-------------------------------------
-------------------------------------
--------4-4-6-6-6-4-4-4-------------    X 4
--4-4-4-2-2-4-4-4-2-2-2-4-4-4-------
--2-2-2-----------------2-2-2--------

   FA#			SI       DO#               SI    FA#	  
-------------------------------------------------------------------------------------
-----------------------------------------------------------------------------
-----------------------------------------------------------------------------
----------------------4-4------6-6-6------------4-4-4---------4-4-4-6-6-4-4-4    
---4-4-4--------------2-2------4-4-4------------2-2-2---4-4-4-2-2-2-4-4-2-2-2
---2-2-2------------------------------------------------2-2-2----------------
No hay razón por la que siendo un bribón tengas que hacer de payaso

FA#			   SI       DO#     SI    FA#		
--------------------------------------------------------------------------------
-------------------------------------------------------------------------
-------------------------------------------------------------------------
-------------------4-4---6-6-6------------4-4-4----------4-4-4-6-6-4-4-4       
---4-4-4-----------2-2---4-4-4------------2-2-2---4-4-4--2-2-2-4-4-2-2-2
---2-2-2------------------------------------------2-2-2------------------
No hay sitio que controles mejor que lo que abarcan tus brazos

-------------------------------------------------------------------------------------
-----------------------------------------------------------------------------
-----------------------------------------------------------------------------
----------------------4-4-------6-6-6-----4-4-4-------------4-4-4-6-6-4-4-4    
---4-4-4--------------2-2-------4-4-4-----2-2-2-------4-4-4-2-2-2-4-4-2-2-2
---2-2-2----------------------------------------------2-2-2----------------
No hay porqué sacar del tiesto los pies para montar el sombrajo
		
--------------------------------------------------------------------------------
-------------------------------------------------------------------------
-------------------------------------------------------------------------
----------------4-4-----6-6-6---------4-4-4----------4-4-4-6-6-4-4-4       
---4-4-4--------2-2-----4-4-4---------2-2-2---4-4-4--2-2-2-4-4-2-2-2
---2-2-2--------------------------------------2-2-2------------------
No tiempo de contar hasta diez cuando se viene de paso

--------------------------------------------------------------------------------
-------------------------------------------------------------------------
-2-2-2---2-4--4-6-7-7-7-7-6-4---4-4----2-2-2---2-4--4-6-7-7-7-7-6-4------
-------4-------------------------------------4---------------------------
--------------------------------------------------------------------------------
-------------------------------------------------------------------------

        FA#	      SI           DO#          SI        FA#       SI /DO# /SI#/ 
No hay razón para cambiar de opinión cuando se rompe en pedazos
        FA#	      SI      DO#         SI          FA#           SI /DO# /SI#/
No hay sitio a la reconciliación en el mejor de los casos
         FA#		 SI     DO#           SI          FA#       SI /DO# /SI#/
No hay porque hacer un acto de fe cuando se tiene un fracaso
         FA#	      SI       DO#       SI         FA#             SI /DO# /SI#/
No hay tiempo que se deba perder justificando un retraso

-------------------------------------------------------------------------
-------------------------------------------------------------------------
-2-2-2---2-4--4-6-7-7-7-7-6-4---4-4----2-2-2---2-4--4-6-7-7-7-7-6-4------
-------4-------------------------------------4---------------------------
-------------------------------------------------------------------------
-------------------------------------------------------------------------

MIFA#	DO#		   SOL#            MI        SI
-------------------------------------------------------------------------
-----------------------------------------------------------------
-----------------------------------------4-4--4-4-------------------
------6----6-6---6-----------------------2-2--2-2--4-4--4-4---------
-4-4--4----4-4---4-----6-6--6-6--6--6--------------2-2--2-2---------
-2-2-------------------4-4--4-4--4--4-----------------------------
Ponte pues en marcha y dale color que se oxida. 
											X2
 FA#	DO#		   SOL#           MI         SI
-------------------------------------------------------------------------
-----------------------------------------------------------------
-----------------------------------------4-4--4-4-------------------
------6----6-6---6-----------------------2-2--2-2--4-4--4-4---------
-4-4--4----4-4---4-----6-6--6-6--6--6--------------2-2--2-2---------
-2-2-------------------4-4--4-4--4--4-----------------------------
Ponte pues en marcha y dale calor que se enfría.

SOLO DE GUITARRA ACOMPAÑAMIENTO: 
FA#/ SI /DO# /SI/ X 8
LA/ SI/ DO#/ RE/ DO#/ SI X 2

Ponte pues en marcha y dale color que se oxida. 
Ponte pues en marcha y dale calor que se enfría.
Ponte pues en marcha y dale color que se oxida. 
Ponte pues en marcha y dale calor que se enfría.

SOLO DE GUITARRA HASTA EL FINAL;

FA#	DO#   SOL#   MI    SI



Partitura By Rulos
Calificar esta versión:
Aviso: Este fichero es trabajo propio de su transcriptor y representa su interpretación personal de la canción. El material contenido en esta página es para exclusivo uso privado, por lo que se prohibe su reproducción o retransmisión, así como su uso para fines comerciales.