Sufrido, Rosendo (tablatura)

Autor: Anónimo | 26451 visualizaciones

INTRODUCCIÓN

Con distorsion suave o en limpio.
e|----------------------------------------------------------------|
B|----------------------------------------------------------------|
G|-6-6-6-6--9-9-9-9--4-4-4-4--------------------------------------|x2
D|-6-6-6-6--9-9-9-9--4-4-4-4--4-4-4-4-----------------------------|
A|-4-4-4-4--7-7-7-7--2-2-2-2--4-4-4-4-----------------------------|
E|----------------------------2-2-2-2-----------------------------|

Aqui, ya le metes la distorsión cañera.
e|----------------------------------------------------------------|
B|----------------------------------------------------------------|
G|-6-6-6-6--9-9-9-9--4-4-4-4--------------------------------------|x2
D|-6-6-6-6--9-9-9-9--4-4-4-4--4-4-4-4-----------------------------|
A|-4-4-4-4--7-7-7-7--2-2-2-2--4-4-4-4-----------------------------|
E|----------------------------2-2-2-2-----------------------------|

VERSO


e|----------------------------------------------------------------|
B|----------------------------------------------------------------|
G|-6-6-6-6--9-9-9-9--4-4-4-4--------------------------------------|x4
D|-6-6-6-6--9-9-9-9--4-4-4-4--4-4-4-4-----------------------------|
A|-4-4-4-4--7-7-7-7--2-2-2-2--4-4-4-4-----------------------------|
E|----------------------------2-2-2-2-----------------------------|

 "En el buen sentido...  vamos mal"
 "No me crezco xq no me cuido... nada mas"
 "Tu me has confunido...    al final"
 "Vayan a pensar que no voy SUFRIDO"
	
PRE-ESTRIBILLO

e|----------------------------------------------------------------|
B|----------------------------------------------------------------|
G|----------------------------------------------------------------|
D|-2-2-2------9----7-----5-4-2-5-5-4------------------------------|x3
A|-2-2-2------9----7-----5-4-2-5-5-4------------------------------|
E|-0-0-0------7----5-----3-2-0-3-3-2------------------------------|

  No es lo que parece...
  Ni merma ni crece...
  Ni gilipolleces...


ESTRIBILLO

e|----------------------------------------------------------------|
B|----------------------------------------------------------------|
G|------------6-6-6-6---7-7-7-7---9-9-9-9-------------------------|x4
D|--7-7-7-7---6-6---6---7-7---7---9-9---9-------------------------|
A|--7-7---7---4-4---4---5-5---5---7-7---7-------------------------|
E|--5-5---5-------------------------------------------------------|

   No me engañas, el que menos y el mas
   se apaña, tu me vienes a ofrecer 
   compaña, y no paras de meter 
   cizaña...


* El resto de la canción es todo igual, solamente falta el solo, que espero sacarlo.
  Creo q esta bien sacada. Lo mas importante de la canción es no hacer caso a la voz, 
  que despista bastante, y tocar lo que lo que esta escrito.
Calificar esta versión:
Aviso: Este fichero es trabajo propio de su transcriptor y representa su interpretación personal de la canción. El material contenido en esta página es para exclusivo uso privado, por lo que se prohibe su reproducción o retransmisión, así como su uso para fines comerciales.