Maneras De Vivir, Rosendo (bajo)

Autor: Anónimo | 32234 visualizaciones

(by foulquié)
/= arrastrar

(Intro)
Riff 1 (si piensas que estoy muy triste….)

G|------------------------------------|
D|------------------------------------|
A|-----2/5----------4-----------------|
E|-0---------5-----------5--------3---|

O también podéis tocar esto, da igual

G|----------------------------------------------|
D|----------------------------------------------|
A|--1/7---77-77---55-55---------------------5-7-|
E|--------------------------55-55-55-5--5-7-----|

Riff 2 (maneras de vivir…)

G|--------------------------------|
D|--------------------------------|
A|---------4----------------------|
E|--0--5------5-------------------|

Riff 3 (voy cruzando el calendario…)

G|---------------------------------|
D|---------------------------------|
A|---66/1-1/4-4/8------------------|
E|---------------------------------|

Viva el tito Rosend y la madre que lo parió (esta cancioncilla 
se la dedico a Topolliyo ta’ pelea y a todos los visitantes de atame)
Calificar esta versión:
Aviso: Este fichero es trabajo propio de su transcriptor y representa su interpretación personal de la canción. El material contenido en esta página es para exclusivo uso privado, por lo que se prohibe su reproducción o retransmisión, así como su uso para fines comerciales.