Hasta De Perfil, Rosendo (tablatura)

Autor: Anónimo | 17664 visualizaciones



e----------------|-         
B----------------|-
G-1-2-2-2-1------|-
D-2-2-2-2-2------|-
A-2-2-2-2-2------|-
E-0-0-0-0-0------|-

   FIG. 1

Intro:

LA5-RE5-MI5-RE5-LA
FA#5-SI-MI * FIG. 1 

-Los acordes de la intro son los mismos que en las estrofas, 
son simples quintas y se pueden hacer en diferentes posiciones, 
según el sonido que quieras sacar-



Estrofa 1

LA5                      RE5
Ni se paga con dinero ni se vende libertad

MI5                      LA5
ganas me dan de hartarme de reir

FA#5                     SI5               FIG. 1
que animal,no me extraña que sientas infeliz

LA5                      RE5
ser el rey del hormiguero no es motivo de envidiar

MI5                      LA5
como si fuera el guarda del redil

FA#5                     SI5               FIG. 1
ven p´aca que parece que te has vuelto a confundir



Estribillo

FA#5
Te has metido en un barrizal

LA5                          RE5  MI5
Te has perdido en la cantidad

FA#5
Aprendiste a caminar,

LA5                          RE5  MI5
sin salirte de la general

FA#5        
Deprimido singular

LA5
te ha dolido la sociedad

RE5
estabas tan escondido

SI5                    MI5
que te acabas de encontrar

Aquí van los solos que se intercalan al final de la canción. 
El tab tiene algunos fallos (se admiten correcciones) pero como 
aproximación creo que vale. No he anotado los armónicos ni los 
vibratos, porque es cosa de cada uno. Los símbolos por si alguien 
no se aclara:

-b: es un bend
-H: es un hammer-on (ligado ascendente)
-p: es un pull-off (ligado descendente)
-/: es un slide
-x: esto es tocar la cuerda sin que suene 


Solo 1

------------------------------|---------------------------------------|
------------------------------|---------------------------------------|
------------------------------|-----2/1-2-2p1-4-----------------------|
-2h4-x-4p2-4-4--2h4-x-4p2-4-4-|-2h4-------------2---2h4-4p2---2h4-----|
------------------------------|-----------------------------4-----2-0-|
------------------------------|---------------------------------------|

------------------------|-----------------------------------
---------------------5--|-------------------3p2-------------
---------------2---2-4b-|-------2---4---2-4-----4-2-4-4b(4)-
-----------2-4---4------|-2h4-4---4---4---------------------
-----0-2h4--------------|-----------------------------------
-0-2--------------------|-----------------------------------


Solo 2

e--7b--7p5-----5-7-5-|-7b-7p5-----5-4-5--|--7p5-4-5p4-2-4p2p0-
B----------7-7-------|---------7-7-------|-----------------
G--------------------|-------------------|-----------------
D--------------------|-------------------|-----------------
A--------------------|-------------------|-----------------
E--------------------|-------------------|-----------------

----2------------------
2-5---2----------------
--------4-2------------
------------4----------
-----------------------
-----------------------

Solo 3

----------------------------------------|---------------------------------------|
----------------------------------------|---------------------------------------|
-------------------------------2-4-4b-2-|-----2/1-2-2p1-4-2-1---2p1---1h2-1-----|
-----2-------2-------2-----2-4----------|-2h4-----------------4-----4-------4-2-|
-2h4---2-2h4---2-2h4---2h4--------------|---------------------------------------|
----------------------------------------|---------------------------------------|

-------------------------|--------4-5-7-5p4-(...) y va fundiendo 
-------5-----------------|----5-7----------------
----2--4b-2----4---4---2-|-/6--------------------
-2h4---------4---4---4---|-----------------------
-------------------------|-----------------------
-------------------------|-----------------------


Pues nada esto es todo, para dudas y correcciones mi mail. 
A ver si nos animamos en el ATAME con el Rock en español,
que hay pocos TABs.





Calificar esta versión:
Aviso: Este fichero es trabajo propio de su transcriptor y representa su interpretación personal de la canción. El material contenido en esta página es para exclusivo uso privado, por lo que se prohibe su reproducción o retransmisión, así como su uso para fines comerciales.