Date Por Disimulao, Rosendo (tablatura)

Autor: Anónimo | 29256 visualizaciones

               ^ . ^               ^ . ^     Abajo,arriba,Abajo
-----------------------------------------------
---------------2-2-2---------------2-2-2-------
---------------2-2-2---------------2-2-2-------
--4-4-----4-4--2-2-2--4-4-----4-4--2-2-2------- Riff
--4-4-----4-4--0-0-0--4-4-----4-4--0-0-0-------
--2-2-0-0-2-2---------2-2-0-0-2-2--------------


------------------4-4-4-4----------------------
------------------5-5-5-5-4-4-4-4--------------
------------------4-4-4-4-4-4-4-4--------------
-4-4-4-4-6-6-6-6----------4-4-4-4-------------- Cambio
-4-4-4-4-6-6-6-6----------2-2-2-2--------------
-2-2-2-2-4-4-4-4-------------------------------
 F#      G#       E       B

Estrofa1

Riff
¿Qué te tiene tan embelesao?
¿Qué me esta poniendo a prueba?
Que bien te lo pasas condenao
¿O es que te lo haces por si cuela?

Cambio

F#               G#     E      B
Un ungüento mágico
F#               G#     E      B
Un módico anestésico
F#         G#     E      B
Es tan básico
F#               G#       E      B
Que no te avala el crédito

Estribillo

B            F#
SI LA idiotez consuela
E     A
Amos anda
B         F#
Eres un iluminao
E     A
Amos anda
B          F#
¿Ves como no lo aprueban?
E     A
So baranda!
B        F#
Date por disimulao

Riff

Estrofa 2

Riff
Vamos a no prestar atención
A dejar de estar en vilo
Como que si quiero que si no
Vamos a tomárnoslo tranquilo

Cambio

F#               G#     E      B
Que no cunda el pánico
F#               G#     E      B
Que no somos estúpidos
F#            E      B
Ni bandálicos
F#               G#       E      B
Ni hacemos nada impúdico

Estribillo

B          F#
SI LA idiotez consuela
E     A
Amos anda
B          F#
Eres un iluminao
E     A
Amos anda
B        F#
¿Ves como no lo aprueban?
E     A
So baranda!
B         F#
Date por disimulao


Solo del maestro y repeticion del estribillo ata el final
Calificar esta versión:
Aviso: Este fichero es trabajo propio de su transcriptor y representa su interpretación personal de la canción. El material contenido en esta página es para exclusivo uso privado, por lo que se prohibe su reproducción o retransmisión, así como su uso para fines comerciales.