A La Sombra De Una Mentira, Rosendo (tablatura)

Autor: Anónimo | 15254 visualizaciones

Rosendo: A la sombra de una mentira
------------------------------------

Intro:
------
 Em6    G                 Em6   G
|-7...-----------------3--7...------------------3--|
|-8...------0h1-3----3----8...-------0h1-3----3----|
|-9...----0---------------9...-----0---------------|
|-9...--------------------9...---------------------|
|-7...--------------------7...---------------------|
|-------3----------3-------------3-----------3-----|


Estrofa:
--------
Em                          G
Una sensacion de merecer me persigue sin cesar
Em                          G
un exceso de valoracion me pudiera confudir
D                   Em            C
¿donde estas? que tan poco se te ve
Em                                    G
como admitir como deformidad lo que no es repeticion
Em                                        G
sin la maldita eleccion la posibilidad es solo la solucion
D                                Em         C
y todo lo que consigo es que nadie me entienda
D                              G  C
a la sombra de una mentira moriré.

Puente:
-------
  G               G6      x2
|--------------------------|
|----------0-0-0-----------|
|-----0---------------0----|
|---0---2-----------0---2--|
|--------------------------|
|-3---------------3--------|

Letra:
------

Una sensacion de merecer me persigue sin cesar
un exceso de valoracion me pudiera confudir
¿donde estas? que tan poco se te ve
como admitir como deformidad lo que no es repeticion                            G
sin la maldita eleccion la posibilidad es solo la solucion
y todo lo que consigo es que nadie me entienda
a la sombra de una mentira moriré.

Por fin la idea original se funde con la piel
puesta en escena con tal precision que me llega a convencer
¿donde estas? que tan poco se te ve
es una forma de mediocridad que meniego a poseer
no tengo nada que eprder para mal o para bien
y todolo que consigo es que nadie me entienda
a la sombra de una mentira moriré.

Me puedo abandonar y olvidar que estoy aqui
gesticular,descomponer aunque no pueda dormir
y todo lo que consigo es que nadie me entienda
a la sombra de una mentira moriré.

Louro´04
Calificar esta versión:
Aviso: Este fichero es trabajo propio de su transcriptor y representa su interpretación personal de la canción. El material contenido en esta página es para exclusivo uso privado, por lo que se prohibe su reproducción o retransmisión, así como su uso para fines comerciales.