Todo A Mi Favor, Rosarinos (tablatura)

Autor: Anónimo | 43996 visualizaciones



Este es el arreglito de Todo a mi favor el tango que acompaña el disco de Rosarinos.

---------------------------------------------------------------------------------------------
-5-5-5-5-7-5-5-3-2-5-5-5-5-3-----3-3-3-3-5-3-3-2-0-3-3-3-3-2-----5-5-5-5-7-5-5-3-2-----------
---------------------------------------------------------------------------------------------
---------------------------------------------------------------------------------------------
---------------------------------------------------------------------------------------------
---------------------------------------------------------------------------------------------



----------------------------------
-------------2-3-2----2-----------
-------------------4----4--1-2----
------1-2-4-----------------------
-2-4------------------------------
----------------------------------

y para terminar marcas los dos acordes siguientes: MiM - LaM

Fuente original: LaCuerda
Colaborador original: mauricio faussone [mfaussone@yahoo.com]





Calificar esta versión:
Aviso: Este fichero es trabajo propio de su transcriptor y representa su interpretación personal de la canción. El material contenido en esta página es para exclusivo uso privado, por lo que se prohibe su reproducción o retransmisión, así como su uso para fines comerciales.