Madre Tierra, Robi Draco Rosa (tablatura)

Autor: Anónimo | 22870 visualizaciones

TAB SYMBOLOS:
------------
/      SLIDE UP FROM THE FRET INDICATED TO ANOTHER INDICATED FRET.
      SLIDE DOWN FROM THE FRET INDICATED TO A FEW FRETS BELOW.
~      VIBRATO.
^      BEND.
^^^^   REAL SLOW BEND
H      HAMMER ON
P      PULL OFF
R      RELEASE BEND
x      RAKE THE STRING


(Debes afinar tu guitarra un tono y medio abajo de la afinacion estandar,
 o sea C#,G#,E,B,F#,C#)

INTRO

C#||--------------------|--------------------|
G#||--------------------|--------------------|
E ||-10---9----10---9---|-10---9----10------|
B ||-10---9----10---9---|-10---9----10------|
F#||-9----7----9----7---|-9----7----9-------|
C#||--------------------|--------------------|

C#||--------------------|--------------------|
G#||--------------------|--------------------|
E ||-10---9----10---9---|-10-X-9----10---9---|
B ||-10---9----10---9---|-10-X-9----10---9---|
F#||-9----7----9----7---|-9--X-7----9----7---|
C#||--------------------|--------------------|


RIFF 1

C#||--------------------|---------------3~~~-|
G#||--------------------|---------------3~~~-|
E ||---------------2~~~-|---------------0~~~-|
B ||-----2-------2-2~~~-|-----2-------2-0~~~-|
F#||---------1----------|---------1----------|
C#||-0-----0------------|-0-----0------------|

		    Pa pa...		  Pa pa...

VERSE 1

C#||--------------------|--------------------|
G#||--------------------|--------------------|
E ||---------------2----|-------2^4R2P0------|
B ||-----2---------2----|---------------2----|
F#||---------1----------|--------------------|
C#||-0-----0------------|--------------------|

    Alguien te dio tu... .

	                P.M|-|
   |--------------------|--------------------|
   |--------------------|--------------------|
   |----------------2---|--------------------|
   |-----2--------2-2---|--------------------|
   |---------1----------|--------------------|
   |-0-----0------------|------3---3~--------|

   Alguien te dio tu...

			  P.M|-|  (WAH+)
C#||-----0--------------|-----0----X---------||--------------------|
G#||-----0--------------|-----0----X---------||--------------------|
E ||----------------2---|----------X---------||----------------2---|
B ||--------------2-2---|--------------------||-----2--------2-2---|
F#||----------1---------|--------------------||---------1----------|
C#||-0------------------|--------------------||-0-----0------------|

    Te dio la leche blanca....		       sacada de un pezón de razon


CHORUS

C#||---------------0----||
G#||---------------0----||
E ||--------------------|| X 4
B ||--------------------||
F#||--------------------||
C#||-3-5-6-7~-7-------||

	   Tú...

C#||--------------------||
G#||--------------------||
E ||--------------------||
B ||--7--6--5--4--------||
F#||--5--4--3--2--------||
C#||--------------------||


RIFF1

VERSE 2
			    (WAH+)    (WAH+)
C#||--------------------|-----X---------X----|
G#||--------------------|-----X---------X----|
E ||---------------2----|-----X---------X----|
B ||-----2---------2----|--X---------X-------|
F#||---------1----------|--X---------X-------|
C#||-0-----0------------|--------------------|

   Alguien trazó...

   |--------------------|--6-6-6-6-6-6-6-6---|
   |--------------------|--6-6-6-6-6-6-6-6---|
   |----------------2---|--------------------|
   |-----2--------2-2---|--------------------|
   |---------1----------|--------------------|
   |-0-----0------------|--------------------|

   todo te lo dio sin nada a cambio


C#||--------------------|--------------------||--------------------|
G#||--------------------|--------------------||--------------------|
E ||----------------2---|--------------------||----------------2---|
B ||-----2--------2-2---|--7^9R7P5--7^9R7P5--||-----2--------2-2---|
F#||---------1----------|--------------------||---------1----------|
C#||-0-----0------------|--------------------||-0-----0------------|

    Alguien besó...			       y cada noche...


CHORUS

SOLO

C#||-------------------------------------|
G#||-------------------------------------|
E ||-------------------------------------|
B ||-------------------------------------|
F#||-5H7--5-4-5~---4-2--4--2-------------|
C#||-------------------------5-3--0-3~---|


			   (Slowly bend up)
   |-----------------------------------------------|
   |-----------------------------------------------|
   |-----------------------------------------------|
   |--------------------5-7-7-7-7-7^9R7P5-7-5-7^9--|
   |---------2--5--5/7-----------------------------|
   |--0-3-5----------------------------------------|


   |------------------------------------------------|
   |---------------------------------------------8--|
   |-4H6-6--4-4/6H7-7--6-6/7H9-9--7-7/9H11--9-11----|
   |------------------------------------------------|
   |------------------------------------------------|
   |------------------------------------------------|


   |--------7-------------7---------9-9-|
   |-7-8-10---10-8-7-8-10---10-8-7-8----|
   |------------------------------------|
   |------------------------------------|
   |------------------------------------|
   |------------------------------------|


   |-----------------------------------------------------|
   |---8-8^11R8^11R8^11R8^11R8^11R8-------12^15---(15)---|
   |-9------------------------------9-7-9----------------|
   |-----------------------------------------------------|
   |-----------------------------------------------------|
   |-----------------------------------------------------|

   |-------------------------------|
   |-12P10-------------------------|
   |-------12P11-------------------|
   |-------------12P11-------------|
   |-------------------10~~~-------|
   |-------------------------------|

(En la siguiente parte hay dos guitarras punteando, y para que suene
 parecido con una gutarra es necesario un poquito de improvisacion,
 asi que la siguiente es mi improvisacion, o uds pueden probar su propia)

C#||---------------------------------------5-7P5---------------------|
G#||-5-5-5-0-5-5-5-0-5-5-5-0-5-5-5-0-5-7-8-------8-7-8-7-5-7-8-7-5-0-|
E ||-----------------------------------------------------------------|
B ||-----------------------------------------------------------------|
F#||-----------------------------------------------------------------|
C#||-----------------------------------------------------------------|


   |-----------------------5-7P5------------------|
   |-5-5-5-0-5-5-5-0-5-7-8-------8-7-8-7-5-7-5~---|
   |----------------------------------------------|
   |----------------------------------------------|
   |----------------------------------------------|
   |----------------------------------------------|

   |-5---5-5-X-X-5---5-5-X-X-5-5-5-5------|
   |-7---7-7-X-X-7---7-7-X-X-7-7-7-7------|
   |-7---7-7-X-X-7---7-7-X-X-7-7-7-7------|
   |-7---7-7-X-X-7---7-7-X-X-7-7-7-7------|
   |--------------------------------------|
   |--------------------------------------|


   |-----10-12P10----10------12---------------------------------------|
   |-/12----------12----12^14--R12-10-12^15R12-15----10^12R10---------|
   |----------------------------------------------14----------12-9-12-|
   |------------------------------------------------------------------|
   |------------------------------------------------------------------|
   |------------------------------------------------------------------|


   |-------------------10----10-12/15-12-15P12--|
   |-/10-8-10-10-10/12----12--------------------|
   |--------------------------------------------|
   |--------------------------------------------|
   |--------------------------------------------|
   |--------------------------------------------|

   |----------15------------------------------|
   |-15-15^17--------R15--10-10^^^^^12--------|
   |------------------------------------------|
   |------------------------------------------|
   |------------------------------------------|
   |------------------------------------------|


CHORUS

C#||---------------0----||
G#||---------------0----||
E ||--------------------|| X 4
B ||--------------------||
F#||--------------------||
C#||-3-5-6-7~-7-------||


C#||-3-5-6-7~-7----0--||
G#||-----------------0--||
E ||--------------------|| X 4
B ||--------------------||
F#||--------------------||
C#||--------------------||

ENDING

C#||----------------||
G#||----------------||
E ||----------------||
B ||----------------||
F#||----------------||
C#||-3-5-6-7--------||


C#||--------------------|--------------------|
G#||--------------------|--------------------|
E ||-10---9----10---9---|-10---9----10---9---|
B ||-10---9----10---9---|-10---9----10---9---|
F#||-9----7----9----7---|-9----7----9----7---|
C#||--------------------|--------------------|


C#||--------------------|--------------------|
G#||--------------------|--------------------|
E ||-10---9----10---9---|-10-X-9----10---9--|
B ||-10---9----10---9---|-10-X-9----10---9--|
F#||-9----7----9----7---|-9--X-7----9----7--|
C#||--------------------|--------------------|


C#||----------------||
G#||----------------||
E ||-9---9---------||
B ||-9---9---------||
F#||-7---7---------||
C#||-0---0X---------||




LYRICS

(Intro)
(Riff1)
(Verse 1)
Alguien te dio tu propia vida
fruto de un amor doloroso.
Alguien te dio tu propio nombre
y marcó tu paso.
Te dio la leche blanca de la luna
sacada de un pezón de raso.

(Chorus)
Tú...y quién eres tú
si no existiera Madre Tierra
Tú...quién eres tú.

(Verse 2)
Alguien trazó tu camino
dentro de la selva,
todo te lo dio sin nada a cambio.
Alguien besó tu frente con la boca fresca
y cada noche puso un ángel en tu cuarto.

(Chorus)
Tú...y quién eres tú
si no existiera Madre Tierra
Tú...y quién eres tú.

(Solo)
(interlude)
Madre Tierra, más mentira que verdad
solamente es una idea de mi mente
un recuerdo para olvidar.

(Chorus)
Tú...y quién eres tú
si no existiera Madre Tierra
Tú...y quién eres tú.

Tú...y quién eres tú
si no existiera Madre Tierra
Tú...y quién eres tú.

(Ending)
Calificar esta versión:
Aviso: Este fichero es trabajo propio de su transcriptor y representa su interpretación personal de la canción. El material contenido en esta página es para exclusivo uso privado, por lo que se prohibe su reproducción o retransmisión, así como su uso para fines comerciales.