30-20 Blues, Robert Johnson (tablatura)

Autor: nano22_pd | 28914 visualizaciones



A7          Adim7        Dm6          A     A7 A6 A+
E----------|-9----------|-8--8--------7--7-------|----5--5--5--5-|
B----------|-8----------|-7--7--------6--6-------|-------5-------|
G----/9----|-9----------|-8--8-----7--7--7-------|---------------|
D----------|------------|-------------------7--6-|-2-----5--4--3-|
A----------|-0--0--0--0-|-0-----0-----0-----0----|-0-------------|
E----------|------------|------------------------|---------------|
               

  A5    E7/5         N.C.                                  A
A6 A
E-5--0--0--0-------|---0---------------|--5--------------|-0------0-0--0-0---|
B------------------|-------------------|-----------------|-2--------1*-----2-|
G------------------|-------------------|-----------------|-----------------2-|
D-2-----0-----0--0-|-------------------|-----------------|---------------4---|
A-------2-----2----|---0---0---0---0---|--0---0---0---0--|-0-0-0-0--0----0---|
E-------0-----0----|-------------------|-----------------|-------------------|


    Amaj7 A7     D7                                  A   A7
E--5--4--3-----|--------------|----------------|-----5--3--3--------0--|
B--------------|--------------|----------------|-----------------2-----|
G--------------|--5-----------|-----5----------|-----------------------|
D-----2--------|--4--4--4--4--|--4--4---4---4--|--------2-----2--------|
A--0--0--0--0--|--5--5--5--5--|--5--5---5---5--|--0--0--------0--------|
E--------------|--------------|----------------|-----------------------|


   A                     E7/5                   D7/F#               A A7
A6 A+
E--5--3--2--0--------|---------------|---------------------|--5-5-5-5-5-5-0-|
B--------------------|---------------|-------------1-------|----------------|
G--------------------|---------------|------------------2--|----5---2---2---|
D--2-----------------|---0--0--0--0--|--0------------------|--------4---3---|
A--0--------------4--|---2--2--2--2--|--0---0---0----0-----|-0--------------|
E--------0-----0-----|---0--0--0--0--|--2---2---2----2-----|----------------|

        
  E7                    A7             Adim7                    A7
E--0---0-------------|--9--------------|--8------------------|-9-----------|
B--------------------|--8--------------|--7------------------|-8-----------|
G--------------------|--9-----------8--|---------------------|-9-----------|
D---------0----------|-----------------|----------------/11--|-------------|
A---------2----------|--0--0--0--0-----|--0---0---0---0------|-0--0--0--0--|
E--0----------0------|-----------------|---------------------|-------------|


   A     Amaj7 A7          D              D7                       A
E--5--5--4--3--3-----|------------------|--------------------|-----0--------|
B--------------------|------------------|--------------------|-----2--------|
G--------------------|------------------|--5-----------------|--------------|
D--------------------|--4---4---4---4---|--4---4---4---4-----|------------2-|
A--0-----0--0-----0--|--5---5---5---5---|--5---5---5---5-----|--0-----0---0-|
E--------------------|------------------|--------------------|--------------|
           

                          E7/5                     D7/F#            A A7
A6 A+
E------5--3--2--2--5----|---------------|-----------------|----5---5--5--5--|
B-----------------------|---------------|----------1------|-----------2--2--|
G--2--------------------|---------------|---------------2-|-----------4--3--|
D---------2-----2-------|--0--0--0--0---|--0--------------|--2---5----------|
A--0------0-----0-------|--2--2--2--2---|--0--0--0---0----|-----------------|
E---------------------0-|--0--0--0--0---|--2--2--2---2----|-----------------|
        

   E7                   A5  A7  A6  A+  E          E7        A7
E--0---0------------|-------5---5---5---0--|---0-------------3----|
B---------3---------|----------------------|------0----------2----|
G---------1---------|---2------------------|---------0/1-----2----|
D--0-------------0--|---2---5---4---3------|-------------0---2----|
A------2------2-----|---0------------------|-----------------0----|
E--0---0------0-----|-------------------0--|----------------------|





Comentarios del colaborador: www.allguitartabs.com/t/145918/robert-johnson--32-20-blues--tab

Calificar esta versión:
Aviso: Este fichero es trabajo propio de su transcriptor y representa su interpretación personal de la canción. El material contenido en esta página es para exclusivo uso privado, por lo que se prohibe su reproducción o retransmisión, así como su uso para fines comerciales.