Voices Off Camera, Rise Against (tablatura)

Autor: alvaretto | 35571 visualizaciones

Intérprete: Rise Against
Álbum: Revolutions Per Minute
Canción: Voices Off Camera

Guitarra 1: Zach Blair
Guitarra 2: Tim McIlrath

INTRO
*Guitarra 1*
|--------------------------------------------------|
|--------------------------------------------------|
|--------------------------------------------------|
|--------------------------------------------------|
|-6--6--6-2--2--4-1--1--2-1--1--1-2--2--2-4--4--4--|
|--44-44-4-44-44-4-22-22-2-22-22-2-00-00-0-00-00-0-|

|-----------|
|-----------|
|-----------|
|-1--1--2-4-|
|--22-22--4-|
|---------2-|

VERSO
*Guitarra 1*
|--------------------------------------------------|
|--------------------------------------------------|
|--------------------------------------------------|
|--------------------------------------------------|
|-6--6--6-2--2--4-1--1--2-1--1--1-2--2--2-4--4--4--|
|--44-44-4-44-44-4-22-22-2-22-22-2-00-00-0-00-00-0-|

|-------------------|
|-------------------|
|-------------------|
|-1--1--2-----------| x2
|--22-22-2-4--4--4--|
|-----------22-22-2-|

*Guitarra 2*
|--------------------------------------------------|
|--------------------------------------------------|
|--------------------------------------------------|
|-666666666666666644444444444444442222222222222222-|
|-666666666666666644444444444444442222222222222222-|
|-444444444444444422222222222222220000000000000000-|

|------------------|
|------------------|
|-44444444---------|
|-4444444444444444-| x2
|-2222222244444444-|
|---------22222222-|

CORO
*Ambas guitarras*
|-----------------------------------------------------|
|-----------------------------------------------------|
|-99-88---------99-88-1111------99-88---------99-88---|
|-99-88-88-6666-99-88-1111-6666-99-88-88-6666-99-88-6-|
|-77-66-88-6666-77-66-9-9--6666-77-66-88-6666-77-66-6-|
|-------66-4444------------4444-------66-4444-------4-|

>VERSO
>CORO

ESTRIBILLO
*Ambas guitarras*
|--------------------------------------|
|--------------------------------------|
|-----------------------44-------------|
|-66---------22---------44---------44--| x2
|-66---------22---------22---------44--|
|-44---------00--------------------22--|

SOLO
*Ambas guitarras*
|----------------------------------------|
|----------------------------------------|
|----------------------------------------|
|-6-6--6-----------2-2-------------------|
|-6-6--6---1-2-1---2-2-6-6-7-7-7-6-6-6---|
|-4-4--4-2-------2-0-0-----------------7-|

>CORO

******
ORDEN
>Intro
>Verso
>Coro
>Verso
>Coro(x2)
>Estribillo
>Solo
>Coro(x2)

LYRICS
Can you hear the desesperate cries that are calling out your name
twisting your arms, holding out their hands
and tugging at you sleeve
do you feel this underlying sense of urgency
or are you as blind as me?

I hit the ground and I'm still running 
but I need a place to stay tonight
swear I'll be gone in the morning 
I just need somewhere now

I can't bear the through of losing
I dread the attention winning brings
and ever since the day I came here
I can stand without your strings
I'm so sick of all this people
but I'm scared to be alone
and if this life has taught me anything
I forgote it long ago and so I...

Hit the ground and I'm still running 
but I need a place to stay tonight
swear I'll be gone in the morning 
I just need somewhere warm to close my eyes
hit the ground and I'm still running 
but I need a place to stay tonight
swear I'll be gone in the morning 
I just need somewhere warm to close my eyes

The heart is something
you can't control
we either chose to follow
or be left on our own
so we're leaving here on
a less travelled road
as desperate cries grow louder
I know we're getting close
getting close...

I hit the ground and I'm still running 
but I need a place to stay tonight
swear I'll be gone in the morning 
I just need somewhere warm to close my eyes
hit the ground and I'm still running 
but I need a place to stay tonight
swear I'll be gone in the morning 
I just need somewhere warm to close my eyes
Calificar esta versión:
Aviso: Este fichero es trabajo propio de su transcriptor y representa su interpretación personal de la canción. El material contenido en esta página es para exclusivo uso privado, por lo que se prohibe su reproducción o retransmisión, así como su uso para fines comerciales.