The Good Left Undone, Rise Against (tablatura)

Autor: alvaretto | 43326 visualizaciones

Intérprete: Rise Against
Álbum: The Sufferer And The Witness
Canción: The Good Left Undone

Guitarra 1: Tim McIlrath (afinación eBGDAE)
Guitarra 2: Zach Blair (afinación eBGDAE)

INTRO

*GUITARRA 1*
|----------------------------------------------------|
|----------------------------------------------------|
|-7-7-7-7-7-7--7-7-7-7-7-7--7-7-7-7-7-7--7-7-7-7-7-7-|
|-x-x-x-x-x-x--x-x-x-x-x-x--x-x-x-x-x-x--x-x-x-x-x-x-|
|-5-5-5-5-5-5--5-5-5-5-5-5--5-5-5-5-5-5--5-5-5-5-5-5-|
|----------------------------------------------------|

*GUITARRA 2*
|-------------------------------------------------------|
|-------------------------------------------------------|
|------------------14-14-14-14-14-14--17-17-17-17-17-17-|
|------------------x--x--x--x--x--x---x--x--x--x--x--x--|
|------------------12-12-12-12-12-12--15-15-15-15-15-15-|
|-------------------------------------------------------|


VERSO 

*GUITARRA 1 y 2*
|--------------------------------------------------------|
|--------------------------------------------------------|
|-7-7-7-7-7-7-7-7-7-7-7-7-7--7-7-7-7-7-7-7-7-7-7-7-7-5-5-|
|-x-x-x-x-x-x-x-x-x-x-x-x-x--x-x-x-x-x-x-x-x-x-x-x-x-x-x-|
|-5-5-5-5-5-5-5-5-5-5-5-5-5--5-5-5-5-5-5-5-5-5-5-5-5-3-3-|
|--------------------------------------------------------|

|---------------------------------------------|
|---------------------------------------------|
|-5-5-5-5-9-9--9-9-9-9-7-7--7-7-7-7--9-9-10-9-| x2
|-x-x-x-x-x-x--x-x-x-x-x-x--x-x-x-x--x-x-x--x-|
|-3-3-3-3-7-7--7-7-7-7-5-5--5-5-5-5--7-7-8--7-|
|---------------------------------------------|

PRE-CORO

*GUITARRA 1 y 2*
|----------------------------------|
|----------------------------------|
|-7-7-7--7-7-7-7-7-------------5-5-| x2
|-7-7-7--7-7-7-7-7-8-8-7-7-5-5-5-5-|
|-5-5-5--5-5-5-5-5-8-8-7-7-5-5-3-3-|
|------------------6-6-5-5-3-3-----|

|---------------------------|
|---------------------------|
|-6-6-6-6-------------------|
|-6-6-6-6-5-5-5-5-8-8-7-7-5-|
|-4-4-4-4-5-5-5-5-8-8-7-7-5-|
|---------3-3-3-3-6-6-5-5-3-|

CORO

*GUITARRA 1*
|-55----55----55----55----5-| 
|----66----66----66----66---|
|---------------------------| varias
|---------------------------| veces
|---------------------------|
|---------------------------|

*GUITARRA 2*
|-------------------------------------------------|
|-------------------------------------------------|
|-7-7-7-7-7-7-7-7-----------------5-5-5-5-5-5-5-5-|
|-7-7-7-7-7-7-7-7-3-3-3-3-3-3-3-3-5-5-5-5-5-5-5-5-|
|-5-5-5-5-5-5-5-5-3-3-3-3-3-3-3-3-3-3-3-3-3-3-3-3-|
|-----------------1-1-1-1-1-1-1-1-----------------|

|-----------------|
|-----------------|
|-8-8-8-8-8-8-8-8-| x2
|-8-8-8-8-8-8-8-8-|
|-6-6-6-6-6-6-6-6-|
|-----------------|

SOLO

Existen dos maneras de tocar el solo:

-la primera es en punteo y es muy fácil

-la segunda es en octavas y es un poco complicada,
pero es la forma en que Zach Blair lo toca
originalmente.

*GUITARRA 1* (forma de punteo)
|----------------------------------------|
|-7-5-5-5-7-7-7-9-9-9-9-9-10-10-10-12-12-|
|----------------------------------------|
|----------------------------------------|
|----------------------------------------|
|----------------------------------------|

|-----------------------------|
|-7-7-7-9-9-9-7-7-7-5-5-7-7/5-|
|-----------------------------|
|-----------------------------|
|-----------------------------|
|-----------------------------|

|--------------------------------------|
|-5-5-5-7-7-7-9-9-9-9-9-10-10-10-12-12-|
|--------------------------------------|
|--------------------------------------|
|--------------------------------------|
|--------------------------------------|

|---------------------------------|
|-4-4-4-5-5-5-5-7-5-5-5-5-5=======|
|---------------------------------|
|---------------------------------|
|---------------------------------|
|---------------------------------|

*GUITARRA 1* (forma de octavas 'original')
|-------------------------------------------------|
|-------------------------------------------------|
|-11-9-9-9-11-11-11-13-13-13-13-13-14-14-14-16-16-|
|-x--x-x-x-x--x--x--x--x--x--x--x--x--x--x--x--x--|
|-9--7-7-7-9--9--9--11-11-11-11-11-12-12-12-14-14-|
|-------------------------------------------------|

|----------------------------------------|
|----------------------------------------|
|-11-11-11-13-13-13-11-11-11-9-9-11-11/9-|
|-x--x--x--x--x--x--x--x--x--x-x-x---x/x-|
|-9--9--9--11-11-11-9--9--9--7-7-9---9-7-|
|----------------------------------------|

|----------------------------------------------|
|----------------------------------------------|
|-9-9-9-11-11-11-13-13-13-13-13-14-14-14-16-16-|
|-x-x-x-x--x--x--x--x--x--x--x--x--x--x--x--x--|
|-7-7-7-9--9--9--11-11-11-11-11-12-12-12-14-14-|
|----------------------------------------------|

|----------------------------------|
|----------------------------------|
|-8-8-8-9-9-9-9-11-9-9-9-9-9=======|
|-x-x-x-x-x-x-x-x--x-x-x-x-x-------|
|-6-6-6-7-7-7-7-9--7-7-7-7-7=======|
|----------------------------------|

*GUITARRA 2*
|-------------------------------------------------|
|-------------------------------------------------|
|-7-7-7-7-7-7-7-7-----------------5-5-5-5-5-5-5-5-|
|-7-7-7-7-7-7-7-7-3-3-3-3-3-3-3-3-5-5-5-5-5-5-5-5-|
|-5-5-5-5-5-5-5-5-3-3-3-3-3-3-3-3-3-3-3-3-3-3-3-3-|
|-----------------1-1-1-1-1-1-1-1-----------------|

|-----------------|
|-----------------|
|-8-8-8-8-8-8-8-8-| 
|-8-8-8-8-8-8-8-8-|
|-6-6-6-6-6-6-6-6-|
|-----------------|

|-------------------------------------------------|
|-------------------------------------------------|
|-7-7-7-7-7-7-7-7-----------------5-5-5-5-5-5-5-5-|
|-7-7-7-7-7-7-7-7-3-3-3-3-3-3-3-3-5-5-5-5-5-5-5-5-|
|-5-5-5-5-5-5-5-5-3-3-3-3-3-3-3-3-3-3-3-3-3-3-3-3-|
|-----------------1-1-1-1-1-1-1-1-----------------|

|------------------------|
|------------------------|
|-8-8-8-8-8-8-8-8========| 
|-8-8-8-8-8-8-8-8========|
|-6-6-6-6-6-6-6-6========|
|------------------------|

Luego se toca lo del coro pero solo en bajo
y empieza el coro normal, y al final la
guitarra 1 toca el solo mientras la guitarra 2
toca lo del coro, y ahí se acaba

ORDEN:
intro
verso
pre-coro
coro
intro
verso
pre-coro
coro
solo
coro (solo en bajo)
coro (x2)

LYRICS
In fields where nothing grow but weeds
I found a flower at my feet
bending there in my direction
I wrapped a hand around it's stem
I pulled until the roots gave in
finding now what I've been missing
and I know...
So I tell myself, tell myself it's wrong
there's a point we passed from which we can't return
I felt the cold rain of the coming storm

All because of you
I haven't slept in so long
when I do I dream
of drowning in the ocean
longing for the shore
where I can let my head down
I'll follow your voice
all you have to do is shout it out

Inside my hands these petals brown
dried up falling to the ground
but it was already too late now
I pushed my fingers through the earth
returned this flower to the dirt
so it could live, I walk away now
but I know...
Not a day goes by that I don't feel this spurn
there's a point we passed from which we can't return
I felt the cold rain of the coming storm

All because of you
I haven't slept in so long
when I do I dream
of drowning in the ocean
longing for the shore
where I can let my head down
I'll follow your voice
all you have to do is shout it out

All because of you
All because of you
All because of you
I haven't slept in so long
when I do I dream
of drowning in the ocean
longing for the shore
where I can let my head down...
inside these arms of yours
All because of you
I believe in angels
no the kind with wings
and no the kind with halos
the kind that bring you home
when home becomes a strange place
I'll follow your voice
all you have to do is shout it out
Calificar esta versión:
Aviso: Este fichero es trabajo propio de su transcriptor y representa su interpretación personal de la canción. El material contenido en esta página es para exclusivo uso privado, por lo que se prohibe su reproducción o retransmisión, así como su uso para fines comerciales.