Swing Life Away, Rise Against (tablatura)

Autor: alvaretto | 18130 visualizaciones

INTRO

A|-------------------------------|
B|-0-----------3-3-3-3-3-3-3-3-3-|
C|---0---2-0---0-0-0-0-0-0-0-0-0-|
X|-----0-----4-X-X-X-X-X-X-X-X-X-|
Y|-------------3-3-3-3-3-3-3-3-3-|
Z|-------------------------------|

A|-------------------------------|
B|-0-----------3-3-3-3-3-3-3-3-3-|
C|---0---2-0---0-0-0-0-0-0-0-0-0-|
X|-----0-----4-X-X-X-X-X-X-X-X-X-|
Y|-------------3-3-3-3-3-3-3-3-3-|
Z|-------------------------------|

A|-----------------------|
B|-3-3-3-3-3-3-3-3-3-3-3-|
C|-2-2-2-2-2-2-2-2-2-2-2-|
X|-0-0-0-0-0-0-0-0-0-0-0-|
Y|-0-0-0-0-0-0-0-0-0-0-0-|
Z|-----------------------|

VERSE

A|-----------------------------------------|
B|-----------------------------------------|
C|---------------------5-5-5-5-5-5-5-5-5-5-|
X|-2-2-2-2-2-5-5-5-5-5-3-3-3-3-3-3-3-3-3-3-|
Y|-2-2-2-2-2-5-5-5-5-5-3-3-3-3-3-3-3-3-3-3-|
Z|-0-0-0-0-0-3-3-3-3-3---------------------|

A|------------------------------------| Repeat
B|-3--3-3-3-3-3--3-3-3-3-3--3-3-3-3-3-| this
C|-0--0-0-0-0-0--0-0-0-0-0--0-0-0-0-0-| line
X|-4--4-4-4-4-4--4-4-4-4-4--4-4-4-4-4-|
Y|-5--5-5-5-5-5--5-5-5-5-5--5-5-5-5-5-|
Z|------------------------------------|

CHORUS

A|-0-0-0-0-0-------------------------0-0-0-0-0-|
B|-0-0-0-0-0-3-3-3-3-3-3-3-3-3-3-3-3-0-0-0-0-0-|
C|-X-X-X-X-X-0-0-0-0-0-0-0-0-2-2-2-2-X-X-X-X-X-|
X|-2-2-2-2-2-0-0-0-0-X-X-X-X-0-0-0-0-2-2-2-2-2-|
Y|-2-2-2-2-2-X-X-X-X-3-3-3-3-0-0-0-0-2-2-2-2-2-|
Z|-0-0-0-0-0-3-3-3-3-----------------0-0-0-0-0-|

A|---------------------------------------------|
B|-3-3-3-3-3-3-3-3-3-3-3-3-3-3-3-3-3-3-3-3-3-X-|
C|-0-0-0-0-0-2-2-2-2-2-2-2-2-2-2-2-2-2-2-2-2-X-|
X|-0-0-0-0-0-0-0-0-0-0-0-0-0-0-0-0-0-0-0-0-0-X-|
Y|-X-X-X-X-X-0-0-0-0-0-0-0-0-0-0-0-0-0-0-0-0-X-|
Z|-3-3-3-3-3-----------------------------------|

BRIDGE

A|-0-0-0-0-0-3-3-3-3-3-3-3-3-3-3-3-3-3-3-3-|
B|-0-0-0-0-0-3-3-3-3-3-3-3-3-3-3-3-3-3-3-3-|
C|-X-X-X-X-X-0-0-0-0-0-0-0-0-0-0-0-0-0-0-0-|
X|-2-2-2-2-2-0-0-0-0-0-X-X-X-X-X-X-X-X-X-X-|
Y|-2-2-2-2-2-X-X-X-X-X-3-3-3-3-3-3-3-3-3-3-|
Z|-0-0-0-0-0-3-3-3-3-3---------------------|

A|-0-0-0-0-0-3-3-3-3-3-0-0-0-0-0-3-3-3-3-3-|
B|-0-0-0-0-0-3-3-3-3-3-X-X-X-X-X-3-3-3-3-3-|
C|-X-X-X-X-X-0-0-0-0-0-2-2-2-2-2-0-0-0-0-0-|
X|-2-2-2-2-2-0-0-0-0-0-2-2-2-2-2-X-X-X-X-X-|
Y|-2-2-2-2-2-X-X-X-X-X-0-0-0-0-0-3-3-3-3-3-|
Z|-0-0-0-0-0-3-3-3-3-3---------------------|

e|-0-0-0-0-0-3-3-3-3-3-3-3-3-3-3-3-3-3-3-3-3-3-3-3-3-------3-|
B|-0-0-0-0-0-3-3-3-3-3-3-3-3-3-3-3-3-3-3-3-3-3-3-3-3-0-----3-|
G|-X-X-X-X-X-0-0-0-0-0-0-0-0-0-0-0-0-0-0-0-0-0-0-0-0---0---0-|
D|-2-2-2-2-2-0-0-0-0-0-X-X-X-X-X-X-X-X-X-X-X-X-X-X-X-----0-0-|
A|-2-2-2-2-2-X-X-X-X-X-3-3-3-3-3-3-3-3-3-3-3-3-3-3-3-------X-|
E|-0-0-0-0-0-3-3-3-3-3-------------------------------------3-|

Gracias por consultar!!
Calificar esta versión:
Aviso: Este fichero es trabajo propio de su transcriptor y representa su interpretación personal de la canción. El material contenido en esta página es para exclusivo uso privado, por lo que se prohibe su reproducción o retransmisión, así como su uso para fines comerciales.